Zacznij systematycznie uczyć się grać na gitarze razem ze stroną Moja nauka - będziesz miał/miała do niej dostęp po zalogowaniu się w serwisie

Przekorna dusza (tab) - Jan Bo

Opracował -a: petlica,
Dodał -a: petlica,
Redaktor: petlica,
Pochodzi z: http://www.chords.pl
Data publikacji: 2010-11-23 08:35
 
Moja nauka


Ups, problem :-/
Zaloguj się Mój śpiewnik


Intro/Riff A
                                                                   x2
E|----------------------------------------|-------------------------|
H|-11b(12)r(11)-9-11-9--------------------|-------------------------|
G|-11b(12)r(11)-9-11-9--------------------|-1-----------------------|
D|---------------------11-9-11-9----------|-x---4-------------------|
A|-------------------------------9-7------|-2---4-------2---4--4----|
E|-----------------------------------9~---|-0---2---2-4-------------|


E|-----------9-----------9---------9---------------------|-------------------------|
H|---------9---12b(14)~----12b(14)---12-9---------9------|-------------------------|
G|-11b(13)--------------------------------11b(13)---11-9-|-1-----------------------|
D|-------------------------------------------------------|-x---4-------------------|
A|-------------------------------------------------------|-2---4-------2---4--4----|
E|-------------------------------------------------------|-0---2---2-4-------------|


E|----------------------------------------|-------------------------|
H|-11b(12)r(11)-9-11-9--------------------|-------------------------|
G|-11b(12)r(11)-9-11-9--------------------|-1-----------------------|
D|---------------------11-9-11-9----------|-x---4-------------------|
A|-------------------------------9-7------|-2---4-------2---4--4----|
E|-----------------------------------9~---|-0---2---2-4-------------|

Verse

E|----------------------------|----------------------------|
H|----------------------------|----------------------------|
G|------11b(13)--9-11---------|-------------9--------------|
D|--------------------11~-----|-------9--11---11~----------|
A|----------------------------|----------------------------|
E|-(0)------------------------|----------------------------|


E|----------------------------|----------------------------|
H|----------------------------|----------9-----------11-12-|
G|------11b(13)--9-11---------|----------9-----------------|
D|--------------------11~-----|---9--11-----9-11~----------|
A|----------------------------|----------------------------|
E|----------------------------|----------------------------|

Ref

E|-----------------|-----------------|-----------------|-----------------|
H|-----------------|-----------------|-----------------|-----------------|
G|-2-2-------------|-2----2-4----4-4-|-2-2-------------|-2----2-4----4-4-|
D|-2-2-2-2-4-4-----|-2----2-4----4-4-|-2-2-2-2-4-4-----|-2----2-4----4-4-|
A|-0-0-2-2-4-4-----|-0----0-2----2-2-|-0-0-2-2-4-4-----|-0----0-2----2-2-|
E|-----0-0-2-2-----|-----------------|-----0-0-2-2-----|-----------------|


E|-----------------|-----------------|--------------------|-----------------|
H|-----------------|-----------------|--------------------|-----------------|
G|-2-2-------------|-2----2-4----4-4-|--------------------|-----------------|
D|-2-2-2-2-4-4-----|-2----2-4----4-4-|----------------2---|-----------------|
A|-0-0-2-2-4-4-----|-0----0-2----2-2-|------------------4-|-----------------|
E|-----0-0-2-2-----|-----------------|-0---2~---0-2h4-----|-----------------|

pozdr
petlica

Dodaj komentarz ...i/lub link do filmiku video

Zaloguj się do serwisu
Wszelkie materiały i wypowiedzi zamieszczone na www.chords.pl są własnością ich autorów.