Zacznij systematycznie uczyć się grać na gitarze razem ze stroną Moja nauka - będziesz miał/miała do niej dostęp po zalogowaniu się w serwisie

Smutek duszy (tab) - Jan Bo

Opracował -a: petlica,
Dodał -a: petlica,
Redaktor: petlica,
Pochodzi z: http://www.chords.pl
Data publikacji: 2010-11-26 08:42
 
Moja nauka


Ups, problem :-/
Zaloguj się Mój śpiewnik


Intro

|----5----5--------------|----5---5-------------------|
|----3----3--------------|----3---3-------------------|
|-2--2-------------------|----0-----------------------|
|-0--0------4h5-4--------|----0-------------------7---|
|-----------------7-5-4--|-2--2----------2------4-----|
|------------------------|-----------2/3----3/5-------|


Verse

|-----2-------7-----------|---------------------------|
|-----3-------8-----------|-3-------2-----------------|
|-----4-------7-----------|-2-------2-----------------|
|-----4-------9-----------|-2-------2------------2-4--|
|-2---2-------7-----------|-0-------0------0-2/4------|
|-------------------------|---------------------------|


|-----2-------7-----------|---------------------------|
|-----3-------8-----------|-3-------2-----------------|
|-----4-------7-----------|-2-------2---2h4-2-2h4-----|
|-----4-------9-----------|-2-------2-------------2-4-|
|-2---2-------7-----------|-0-------0-----------------|
|-------------------------|---------------------------|

Ref

|-3----3-----|-------5-----|------------|------3------|------3------|
|-3------3---|---------5---|-3--3-------|-3------3----|-3------3----|
|-0--------0-|-2---------2-|-4--4--2--2-|-0--------0--|-0--------0--|
|-0----------|-2-----------|-4--4--2--2-|-0-----------|-0-----------|
|-2----------|-0--0--------|-2-----0----|-2-----------|-2-----------|
|-3--3-------|-------------|------------|-3--3--------|-3--3--------|


|------5-----|------------|------3------|------3------|------------------------|
|--------5---|-3--3-------|-3------3----|-3------3----|-3--3-3-3-2-------------|
|-2--------2-|-4--4--2--2-|-0--------0--|-0--------0--|-2--2-3-2-2-------------|
|-2----------|-4--4--2--2-|-0-----------|-0-----------|-2--2-2-2-2--------2-4--|
|-0--0-------|-2-----0----|-2-----------|-2-----------|-0--0-0-0-0--0-2/4------|
|------------|------------|-3--3--------|-3--3--------|------------------------|

pozdr
petlica
Dodał: kikan, 2013-05-01 15:33
Opracowania video z komentarzy

Dodaj komentarz ...i/lub link do filmiku video

Zaloguj się do serwisu
Ostatnie komentarze
1.
kikan
2013-05-01 15:33
Zapraszam do polubienia nas na facebooku. Prezentujemy tylko polskie solówki gitarowe http://www.facebook.com/polskiesolowki
Wszelkie materiały i wypowiedzi zamieszczone na www.chords.pl są własnością ich autorów.