Zacznij systematycznie uczyć się grać na gitarze razem ze stroną Moja nauka - będziesz miał/miała do niej dostęp po zalogowaniu się w serwisie

Super dzień (tab) - Jan Bo

Opracował -a: Georgowski,
Dodał -a: Georgowski,
Redaktor: SEBEK1304,
Pochodzi z: http://www.chords.pl
Data publikacji: 2011-07-06 15:14
 
Moja nauka


Ups, problem :-/
Zaloguj się Mój śpiewnik


Super dzień
E tuning


   intro/ main riff

|-------------------------------|-----0--0---0-0--|
|-------------------------------|-----0--0---0-0--|
|-------------------------------|-----3--4---6-6--|
|-------------------------------|-----4--5---7-7--|
|--------2-----------------2----|-----------------|
|--3-0-5---3-0---0-0--3-0-5--3--|--0--------------|


 fill 1          verse

|---------------|-----------------------------------|
|--x-x--x-x-x-x-|-----3--3--------------------------|
|--9-9--9-9-9-9-|-2-2----1---0----------------------|
|--8-8--8-8-8-8-|-0------0------3--0---0h3p0--------|
|--x-x--x-x-x-x-|----------------------------3b4p0--|
|---------------|-----------------------------------|

  bridge

|--------------------------------|----------------------------|
|----------------------------3~~-|-------------------------5--|
|----------5--4--------------5~~-|--------5--4-------------0--|
|------3-5-5----5-----3--5---3~~-|----3-5-5----5----3-5/7--7--|
|--3/5--------------5------------|--5-------------5-----------|
|--------------------------------|----------------------------|


|--------------------------------|-------------------------------|
|----------------------------3~~-|------------------------5---3~~|
|----------5--4--------------5~~-|--------5--4-------------------|
|------3-5-5----5-----3--5---3~~-|----3-5-5----5----3-5/7---5----|
|--3/5--------------5------------|--5-------------5--------------|
|--------------------------------|-------------------------------|

Dodaj komentarz ...i/lub link do filmiku video

Zaloguj się do serwisu
Wszelkie materiały i wypowiedzi zamieszczone na www.chords.pl są własnością ich autorów.