Zacznij systematycznie uczyć się grać na gitarze razem ze stroną Moja nauka - będziesz miał/miała do niej dostęp po zalogowaniu się w serwisie

Lubię te noce - Jan Bo

Opracował -a: Georgowski,
Dodał -a: Georgowski,
Redaktor: SEBEK1304,
Pochodzi z: http://www.chords.pl
Data publikacji: 2011-07-07 12:34
 
Moja nauka


Ups, problem :-/
Zaloguj się Mój śpiewnik
Lubię te noce
E tuning

  intro w/fingerpicking

|-----------------------------|
|----------------8p7----------|
|----9---11---9--------9---7--|
|--7---7----7---7----7---7----|
|-----------------------------|
|-----------------------------|

  T     T    T    T    T    T    T
|-----------------------------------------|
|-----------------------------------------|
|-----------------------------------------|
|-12-10h12-9h12-7h12-5h12-7h12-5h12--1-0--|
|-----------------------------------------|
|-----------------------------------------|


  main riff

|---------------------------------|
|---------------------------------|
|---2-2-2-------------------------|
|---2-2-2-------------------------|
|-0--------3p0-5p0-3p0-0h3p0------|
|----------------------------3p0--|

  verse

|----------------------|---------------------|
|--8-8--7-7--5-5--5-5--|---------------------|
|--7-7--7-7--5-5--5-5--|--5-5-5-5-5h7--2--5--|
|-----------------5-5--|--5-5-5-5-5h7--2--5--|
|----------------------|---------------------|
|----------------------|---------------------|

   chorus

|------0--------------------------|
|------3---3----------------------|
|--2---2---0-----5--7--7/9--7--5--|
|--2---0---x-----x--x--x----x--x--|
|--0-------3-----3--5--5/7--5--3--|
|---------------------------------|



Legenda:

h - hammer on
p - pull off
T - tapping

Dodaj komentarz ...i/lub link do filmiku video

Zaloguj się do serwisu
Ostatnie komentarze
1.
petlica
2011-07-13 13:16
Owszem
2.
Georgowski
2011-07-12 14:44
Po bliższym przysłuchaniu można zagrać tak drugą część: |----------------------------------| |----------------------------------| |----------------------------------| |-12-10h12-9p12-7p0-5p0-7p0-5p0----| |------------------------------6-5-| |----------------------------------| Dźwiękowo pozostaje bez zmian, natomiast brzmieniowo wydaje się najbliżej do oryginału Pozdro, G.
3.
petlica
2011-07-08 08:27
Dobre opracowanie, nigdy nie mogłem tego rozgryźć. Początek(drugą część) zagrałbym trochę łatwiej. |-----------------------------| |----------------8p7----------| |----9---11---9--------9---7--| |--7---7----7---7----7---7----| |-----------------------------| |-----------------------------| |-------------------------------------| |-------------------------------------| |-------------------------------------| |-0-10p0-9p0-7p0-5p0-7p0-5p0----------| |-----------------------------6p0-5p0-| |-------------------------------------| Pozdr petlica
Wszelkie materiały i wypowiedzi zamieszczone na www.chords.pl są własnością ich autorów.