Zacznij systematycznie uczyć się grać na gitarze razem ze stroną Moja nauka - będziesz miał/miała do niej dostęp po zalogowaniu się w serwisie

Jak ja kocham cię (bas) - Kabaret OT.TO

Opracował -a: rolbromski,
Dodał -a: rolbromski,
Redaktor: SEBEK1304,
Pochodzi z: http://www.chords.pl
Data publikacji: 2012-05-17 12:04, Poprawiono 2012-09-23 11:59
 
Moja nauka


Ups, problem :-/
Zaloguj się Mój śpiewnik


OTTO - JAK JA KOCHAM CIĘ

Wstęp:

|-------------------|-------------------|
|-------------------|-------------------|
|-0-0-0-0-0-0-0-0-0-|-----------0-0-0---|
|-------------------|-0-0-0-0-0---------|

|-------------------|-------------------|
|-------------------|-------------------|
|-0-0-0-0-0-0-0-0-0-|-----------0-0-0---|
|-------------------|-0-0-0-0-0---------|

Zwortka:

|-------------------|-------------------|
|-----2-------2-2---|-----2-------2-2---|
|-0-3---3-0-3-----3-|-0-3---3-0-3-----3-|
|-------------------|-------------------|

|-------------------|-------------------|
|-----0-------0-0---|-------------------|
|---2---2---2-----2-|-3-3-2---0-0-0---0-|
|-3-------3---------|-------3-------3---|

|-------------------|-------------------|
|-----2-------2-2---|-----2-------2-2---|
|-0-3---3-0-3-----3-|-0-3---3-0-3-----3-|
|-------------------|-------------------|

|-------------------|-------------------|
|-----0-------0-0---|-------------------|
|---2---2---2-----2-|-3-3-2---0-0-0---0-|
|-3-------3---------|-------3-------3---|

Refren:

|-------0---------0-|-------------------|
|-----2---------2---|-------0-----------|
|-3-3-------3-3-----|-----2-----------0-|
|-------------------|-3-3-----0-0-0-0---|

|---------|
|---------|
|-0-0---0-|
|-----3---|

|-------0---------0-|-------------------|
|-----2---------2---|-------0-----------|
|-3-3-------3-3-----|-----2-----------0-|
|-------------------|-3-3-----0-0-0-0---|

|---------|
|---------|
|-0-0---0-|
|-----3---|

|-------0---------0-|-------------------|
|-----2---------2---|-------0-----------|
|-3-3-------3-3-----|-----2-----------0-|
|-------------------|-3-3-----0-0-0-0---|

|---------|
|---------|
|-0-0---0-|
|-----3---|

|-------0---------0-|-----------------------------------|
|-----2---------2---|-------0---------------------------|
|-3-3-------3-3-----|-----2-----------0-0-0-0-0-0-0-0-0-|
|-------------------|-3-3-----0-0-0-0-------------------|

Dodaj komentarz ...i/lub link do filmiku video

Zaloguj się do serwisu
Wszelkie materiały i wypowiedzi zamieszczone na www.chords.pl są własnością ich autorów.