Zacznij systematycznie uczyć się grać na gitarze razem ze stroną Moja nauka - będziesz miał/miała do niej dostęp po zalogowaniu się w serwisie

Faring Explore Day - Kai Rosenkranz (Gothic 3)

Opracował -a: Osa64040,
Dodał -a: Osa64040,
Redaktor: Tomek Pietrzkowski,
Pochodzi z: http://www.chords.pl
Data publikacji: 2010-01-19 12:36
 
Moja nauka


Ups, problem :-/
Zaloguj się Mój śpiewnik


Poszukiwana tabulatura przez wiele osób (w tym przeze mnie) jako, że nikt nie chciał jej dla mnie napisać 
a na necie też jej nie było, postanowiłem zrobić własną ze słuchu. troszkę się pomęczyłem, ale mam nadzieję, 
ze pomogłem wielu osobom :D pozdrawiam.

Główna Melodia

1-----0-5-32----5-0-3/7|--0---0--5-32----5-3-0|
2----0------3----------|-----0-0-----3--------|
3---0------------------|----0-----------------|
4----------------------|----------------------|
5-------------0--------|---------------0------|
6--0-------------------|--0-------------------|

1-----0-5-32----5-0---023523|--0---0--5-32----5-3-0|
2----0------3---------------|-----0-0-----3--------|
3---0-----------------------|----0-----------------|
4---------------------------|----------------------|
5-------------0-------------|---------------0------|
6--0------------------------|--0-------------------|

Outro

1------0-----2-----0-0--0-|------0----2-----0--0|
2-----0-0---3-3---2-2--0-0|-----0-0--3-3---2-2--|
3----0-----2-----2--------|----0----2---2-2---2-|
4--------0----------------|--------0------------|
5--------------0----------|--------------0------|
6--0----------------------|--0------------------|

Główna melodia - Powtórzyć 2-3 razy
Outro - Powtórzyć 2 razy
Zwracajcie uwagę na pauzy (odstępy)

Moja Wersja : http://www.youtube.com/watch?v=f-JQI-j-sDs
Oryginał : http://www.youtube.com/watch?v=dLKsqvcTA-M
Dodał: Osa64040, 2010-01-19 12:36
Opracowania video z komentarzy

Dodaj komentarz ...i/lub link do filmiku video

Zaloguj się do serwisu
Ostatnie komentarze
1.
burmistrztarczyn
2010-04-15 19:05
można też tak zakończyć: --3/7-- --5/8-- ------- ------- ------- -------
2.
burmistrztarczyn
2010-04-14 21:45
Sorki, pod koniec powinno być: --3/7-- --5---- ------- ------- ------- ------- No i oczywiście zastosować do pozostałej części tabulatury:)
3.
burmistrztarczyn
2010-04-14 21:40
Świetna robota tym bardziej, że sam zrobiłeś tabulaturę ze słuchu. Pokombinowałem i wpadłem na pomysł jak można byłoby ją ciutke "upgrade-ować" :) 1-----0-5-32----5-0-3/7| 2----0--3---3--------5-| 3---0------------------| 4----------------------| 5-------------0--------| 6--0-------------------| Pozdro :)
Wszelkie materiały i wypowiedzi zamieszczone na www.chords.pl są własnością ich autorów.