Zacznij systematycznie uczyć się grać na gitarze razem ze stroną Moja nauka - będziesz miał/miała do niej dostęp po zalogowaniu się w serwisie

Skinhead 4 life - Kastracja

Opracował -a: azpunk,
Dodał -a: azpunk,
Redaktor: Tomek Pietrzkowski,
Data publikacji: 2019-02-03 16:39
 
Moja nauka


Ups, problem :-/
Zaloguj się Mój śpiewnik
Cover ACAB - Skinhead 4 life


E|-------------|------------------------|------------------------|------------------------|
B|-------------|------------------------|------------------------|------------------------|
G|-------------|------------------------|------------------------|------------------------|
D|-------------|------------------------|------2------------2----|------2------------2----|
A|---3------3--|------3------------3----|-3--------3----3--------|-3--------3----3--------|
E|-5---5--5----|-5--------5----5--------|------------------------|------------------------|


E|---------------------|---------------------|---------------------|---------------------------|
B|---------------------|---------------------|---------------------|---------------------------|
G|---------------------|---------------------|---------------------|-------------------------4-|
D|---------------------|---------------------|---------------------|---------------------------|
A|------2------------2-|------2------------2-|------3------------3-|---------------------------|
E|-3--------3----3-----|-3--------3----3-----|-5--------5----5-----|-0---0---1---1---3---3-----|


E|---------------------|---------------------|------------------------|------------------------|
B|---------------------|---------------------|------------------------|------------------------|
G|---------------------|---------------------|-5----5---5----5---5----|-5----5---5----5---5----|
D|-7----7---7----7---7-|-7----7---7----7---7-|-5----5---5----5---5----|-5----5---5----5---5----|
A|-7----7---7----7---7-|-7----7---7----7---7-|-3--------3----3--------|-3--------3----3--------|
E|-5--------5----5-----|-5--------5----5-----|------------------------|------------------------|


E|---------------------|---------------------|---------------------|----------------------------|
B|---------------------|---------------------|---------------------|----------------------------|
G|---------------------|---------------------|---------------------|----------------------------|
D|-5----5---5----5---5-|-5----5---5----5---5-|-7----7---7----7---7-|-2---2---3---3---5--5--7--7-|
A|-5----5---5----5---5-|-5----5---5----5---5-|-7----7---7----7---7-|-2---2---3---3---5--5--7--7-|
E|-3--------3----3-----|-3--------3----3-----|-5--------5----5-----|-0---0---1---1---3--3--5--5-|

Dodaj komentarz ...i/lub link do filmiku video

Zaloguj się do serwisu
Wszelkie materiały i wypowiedzi zamieszczone na www.chords.pl są własnością ich autorów.