Zacznij systematycznie uczyć się grać na gitarze razem ze stroną Moja nauka - będziesz miał/miała do niej dostęp po zalogowaniu się w serwisie

Dziewczyny - Kazik

Opracował -a: Bartoszek93,
Redaktor: Tomek Pietrzkowski,
Pochodzi z: http://www.chords.pl
Data publikacji: 2008-08-10 00:01
 
Moja nauka


Ups, problem :-/
Zaloguj się Mój śpiewnik


4x Intro:
E-------------------------
B-------------------------
G-5/7--7-7-7--5/7--7-7-7--
D-5/7--7-7-5--5/7--7-5-7--
A-3/5--5-5-5--3/5--5-5-5--
E-------------------------

E----------------
B----------------
G-3--5--7--10--7-
D-3--5--7--10--7-
A-1--3--5--8---5-
E----------------

Zwr.:
E-----------------------------
B-----------------------------
G-77777777777777777777777777--
D-77777777777777777777777777--
A-55555555555555555555555555--
E-----------------------------

Ref: (Ja wiem, że czasem są upadki i wzloty...)

E-----------------------
B-----------------------
G-5--7-8---8--7-8-7-----
D-5--7-8---8--7-8-7-----
A-3--5-6---6--5-6-5-----
E-----------------------

E-----------------------
B-----------------------
G-5--7-8---8--7-5-7-----
D-5--7-8---8--7-5-7-----
A-3--5-6---6--5-3-5-----
E-----------------------

Dodaj komentarz ...i/lub link do filmiku video

Zaloguj się do serwisu
Wszelkie materiały i wypowiedzi zamieszczone na www.chords.pl są własnością ich autorów.