Zacznij systematycznie uczyć się grać na gitarze razem ze stroną Moja nauka - będziesz miał/miała do niej dostęp po zalogowaniu się w serwisie

Przy Słowie - Kazik

Opracował -a: prophet93,
Redaktor: Tomek Pietrzkowski,
Pochodzi z: http://www.chords.pl
Data publikacji: 2008-11-14 01:42
 
Moja nauka


Ups, problem :-/
Zaloguj się Mój śpiewnik


Wstęp :


E------------------------------|
H------------------------------|
G------------------------------|
D------------------------------|
A--0-2-3--0-3-5--0-2-3--0-3-5--|
E--0-2-3--0-3-5--0-2-3--0-3-5--|

Zwrotka :

E-----------------------------------|
H-----------------------------------|
G-----------------------------------|
D-----------------------------------|
A--0-2-3--0-3-5--0-2-3--0-3-5--0-3-5|
E--0-2-3--0-3-5--0-2-3--0-3-5--0-3-5|


Refren :

E--------------|
H--------------|
G--------------|
D--8-8-8--4-5-5|
A--8-8-8--4-5-5|
E--8-8-8--2-3-3|

E---------------------|
H---------------------|
G---------------------|
D--4-5-4-5-4-5-4-5-4-5|
A--4-5-4-5-4-5-4-5-4-5|
E--2-3-2-3-2-3-2-3-2-3|

I wsio ;P   By ME xD

Dodaj komentarz ...i/lub link do filmiku video

Zaloguj się do serwisu
Ostatnie komentarze
1.
pablo_siersza
2008-11-14 10:53
E:||---0-2-3--0-3-5--0-2-3--0-3-5--0-5-6---| pozdro!
2.
pablo_siersza
2008-11-14 10:53
E:||---0-2-3--0-3-5--0-2-3--0-3-5--0-5-6---| pozdro!
Wszelkie materiały i wypowiedzi zamieszczone na www.chords.pl są własnością ich autorów.