Zacznij systematycznie uczyć się grać na gitarze razem ze stroną Moja nauka - będziesz miał/miała do niej dostęp po zalogowaniu się w serwisie

Mój los - Kazik

Opracował -a: sudud,
Redaktor: Tomek Pietrzkowski,
Pochodzi z: http://www.chords.pl
Data publikacji: 2009-06-11 11:49, Poprawiono 2009-06-11 11:50
 
Moja nauka


Ups, problem :-/
Zaloguj się Mój śpiewnik


bass:
G|----------------------------
D|---------------------3------
A|----5-5----5-5-5-5-5-----3-3
E|----------------------------

charakterystyczny motyw:

e|--15\17-15----15\17-15----20----15-15-17----15\17-15----15\17-15----15
h|-----------18----------18----------------------------18----------18---
g|----------------------------------------------------------------------
d|----------------------------------------------------------------------
a|----------------------------------------------------------------------
E|----------------------------------------------------------------------

Dodaj komentarz ...i/lub link do filmiku video

Zaloguj się do serwisu
Wszelkie materiały i wypowiedzi zamieszczone na www.chords.pl są własnością ich autorów.