Zacznij systematycznie uczyć się grać na gitarze razem ze stroną Moja nauka - będziesz miał/miała do niej dostęp po zalogowaniu się w serwisie

Ballada o Janku Wiśniewskim - Kazik

Opracował -a: tMQ,
Dodał -a: tMQ,
Redaktor: SEBEK1304,
Pochodzi z: http://www.chords.pl
Data publikacji: 2010-12-17 10:15
 
Moja nauka


Ups, problem :-/
Zaloguj się Mój śpiewnik


Wstęp (musicie wsłuchać się w bicie) :

g---7-7-7--7777--xxxx---
d---7-7-7--7777--xxxx---
a---5-5-5--5555--xxxx---
e-----------------------



Zwrotka:

g---7-7-7--7777--xxxx---
d---7-7-7--7777--xxxx---
a---5-5-5--5555--xxxx--- 4x
e-----------------------


g-----------------------
d---7-7-7--7777--xxxx---
a---7-7-7--7777--xxxx--- 3x
e---5-5-5--5555--xxxx---

g----------------7-7-7-7-7---
d---7-7-7--7777--7-7-7-7-7---
a---7-7-7--7777--5-5-5-5-5--- 1x
e---5-5-5--5555--------------



Refren:

g---------------------
d---3-3-3-3-3-3-3-3---
a---3-3-3-3-3-3-3-3--- 3x
e---1-1-1-1-1-1-1-1---

g-----------------------------
d---10-10-10-10-10-10-10-10---
a---10-10-10-10-10-10-10-10--- 1x
e---8--8--8--8--8--8--8--8----

g---------------------
d---7-7-7-7-7-7-7-7---
a---7-7-7-7-7-7-7-7--- 1x
e---5-5-5-5-5-5-5-5---

g---7-7-7-7-7-7-7-7---
d---7-7-7-7-7-7-7-7---
a---5-5-5-5-5-5-5-5--- 1x
e---------------------

g-------------------7-7-7-7-7----
d---8-8-8-8-7-7-7-7-7-7-7-7-7----
a---8-8-8-8-7-7-7-7-5-5-5-5-5---- 1x
e---6-6-6-6-5-5-5-5--------------


Jest tam jeszcze przejście oparte o akord C
Dodał: tMQ, 2010-12-17 10:15
Opracowania video z komentarzy

Dodaj komentarz ...i/lub link do filmiku video

Zaloguj się do serwisu
Ostatnie komentarze
1.
tMQ
2010-12-17 13:25
przejście: e------------------ h-----8-7---------- g---5------7/8/7--- d------------------
Wszelkie materiały i wypowiedzi zamieszczone na www.chords.pl są własnością ich autorów.