Zacznij systematycznie uczyć się grać na gitarze razem ze stroną Moja nauka - będziesz miał/miała do niej dostęp po zalogowaniu się w serwisie

Sztos - Kazik

Dodał -a: umber,
Pochodzi z: http://free.polbox.pl/b/bartmal
Data publikacji: 2005-07-20 00:21
 
Moja nauka


Ups, problem :-/
Zaloguj się Mój śpiewnik


To jest główny riff, z drobnymi dyferencjami grany przez cały utwór

G-|-----------------------|-----------------------|
D-|-----r-------r---------|-----------------------|
A-|-5-5---5-3-5---3-------|-----r-------r-1-----3-| 3x
E-|-----------------5-5-1-|-3-3---1-1-3-----3-1---|
    s s e e e s s s s e e   s s e e e s s s s e e

                                        to gra się tylko gdzieś pod koniec
G-|-----------------|-----------------|-----------------|-----------------|
D-|-----------------|-----------------|-----------------|-----------------|
A-|-----------------|-----------------|-3-3-3-3-3-3-3-3-|-4-4-4-4-4-4-4-4-|
E-|-5-5-5-5-5-5-5-5-|-6-6-6-6-6-6-6-6-|-----------------|-----------------|
    e e e e e e e e   e e e e e e e e   e e e e e e e e   e e e e e e e e


A tu bardzo ładnie słychać bas :)
G-|---------------------|-----------------------|
D-|-----r-----r---------|-----------------------|
A-|-5-5---3-5---3-------|---------r-----r---1---|
E-|---------------5-5-1-|-3-3-3-3---1-3---3---3-|
    e s q s s s s s e e   e e e s e s s s e e e
                          [ 3 ]

G-|-------------------------|-------------------------|
D-|---------r-----r---------|-------------------------|
A-|-5-5-5-5---3-5---3-------|---------r-------r---3---|
E-|-------------------5-5-1-|-3-3-3-3---1-3-3---5---5-|
    e e e s e s s s s s e e   e e e s e s s s e s e s
    [ 3 ]                     [ 3 ]

G-|-------------------------|---------------------------|
D-|---------r-----r---------|---------------------------|
A-|-5-5-5-5---3-5---3-3-3---|-----------r---r-1---r-----|
E-|-----------------------5-|-3-3-3-1-3---3-----3---1-3-|
    e e e s e s s s s s e e   e e e s s s s s s s s e e
    [ 3 ]                     [ 3 ]

G-|-----------------|-----------------|
D-|-----------------|-----------------|
A-|-----------------|-----------------|
E-|-5-5-5-5-5-5-5-5-|-6-6-6-6-6-6-6-6-|
    e e e e e e e e   e e e e e e e e

Dodaj komentarz ...i/lub link do filmiku video

Zaloguj się do serwisu
Wszelkie materiały i wypowiedzi zamieszczone na www.chords.pl są własnością ich autorów.