Zacznij systematycznie uczyć się grać na gitarze razem ze stroną Moja nauka - będziesz miał/miała do niej dostęp po zalogowaniu się w serwisie

Brat grzyie ziemie - Kazik

Opracował -a: secondwave,
Redaktor: Tomek Pietrzkowski,
Pochodzi z: http://www.chords.pl
Data publikacji: 2006-07-30 12:55
 
Moja nauka


Ups, problem :-/
Zaloguj się Mój śpiewnik


----------------- -----------------
8--11--14p15-13-- 14p15--13-11-10--
----------------- -----------------
----------------- -----------------
----------------- -----------------
pomagamy, pomagamy


----------------- -----------------
8--11--14p15-13-- 14p15--13-11-10--
----------------- -----------------
----------------- -----------------
----------------- -----------------


----------------- 14p15-13-11p12-8-
----------------- -----------------
----------------- -----------------
----------------- -----------------
----------------- -----------------


----------------- 8--14p15-13-8----
----------------- -----------------
----------------- -----------------
----------------- -----------------
----------------- -----------------




potem podczas refrenu:
6--10-6--10-6--10 5--8-5--8-5--8---
----------------- -----------------
----------------- -----------------
----------------- -----------------
----------------- -----------------

6--10-6--10-6--10 5--8-5--8-5--8---
----------------- -----------------
----------------- -----------------
----------------- -----------------
----------------- -----------------

Dodaj komentarz ...i/lub link do filmiku video

Zaloguj się do serwisu
Wszelkie materiały i wypowiedzi zamieszczone na www.chords.pl są własnością ich autorów.