Zacznij systematycznie uczyć się grać na gitarze razem ze stroną Moja nauka - będziesz miał/miała do niej dostęp po zalogowaniu się w serwisie

Nie mam nogi - Kazik

Opracował -a: Oniks,
Redaktor: Miłosz,
Data publikacji: 2007-02-28 21:28
 
Moja nauka


Ups, problem :-/
Zaloguj się Mój śpiewnik


WSTĘP:
E|-----------------------|---|
H|-----------------------|---|
G|-----------------------|---|
D|-5/-7-7-7-7-7-7--------|-7-|
A|-5/-7-7-7-7-7-7---/x3--|-7-|
E|-3/-5-5-5-5-5-5--------|-5-|

ZWROTKA:
E|---5------0------4------5-|
H|---5------0------4------5-|
G|--------------------------|
D|-7------2------6------7---|
A|-7------2------6------7---|
E|-5------0------4------5---|

REFREN:
E|------------------------|
H|------------------------|
G|-5555--7777--7777-------|
D|-5333--7777--7777--5555-|
A|-3333--5555--5555--5555-|
E|-------------------3333-|

Po  ”...którym jest lepiej”:
E|------|
H|------|
G|------|
D|-5555-|
A|-5555-|
E|-3333-|

KONIEC:
H|---------------------|
G|-4---4---4---4/5\4-4-|
D|---------------------|

Dodaj komentarz ...i/lub link do filmiku video

Zaloguj się do serwisu
Wszelkie materiały i wypowiedzi zamieszczone na www.chords.pl są własnością ich autorów.