Zacznij systematycznie uczyć się grać na gitarze razem ze stroną Moja nauka - będziesz miał/miała do niej dostęp po zalogowaniu się w serwisie

Bóg się rodzi (tonacja na flet) - Kolędy i Pastorałki

Opracował -a: Naseio Emini,
Redaktor: Miłosz,
Pochodzi z: http://www.chords.pl
Data publikacji: 2008-12-02 20:56
 
Moja nauka


Ups, problem :-/
Zaloguj się Mój śpiewnik


zwrotka:

E1 |-------------|-------------|-------------|-------------|
H2 |---3-3---2---|-------------|-----3-------|-------------|
G3 |-----------0-|-0-0-0-------|---2---2-0---|-------------|
D4 |-0----/------|---------2-0-|-4---------4-|-2-----------|
A5 |-------------|-------------|-------------|-------------|
E6 |-------------|-------------|-------------|-------------|  X2

ref:

E1 |-------------|-------------|-------------|-------------|
H2 |-------------|-------------|-------------|-------------|
G3 |-0---------0-|-2-2-------2-|-0---------0-|-2-2-------2-|
D4 |------2-4----|-------4-----|------2-4----|-------4-----|
A5 |-------------|-------------|-------------|-------------|
E6 |-------------|-------------|-------------|-------------|

E1 |-------------|-------------|-------------|-------------|
H2 |-------------|-------------|-------------|-------------|
G3 |-0--------0--|-2-2-------2-|-0---------0-|-2-----------|
D4 |------2-4----|-------4-----|------2-4----|-----2-0-----|
A5 |-------------|-------------|-------------|---4---------|
E6 |-------------|-------------|-------------|-------------|

by Naseio Emini
Dodał: Bartek Pawłowski, 2015-12-16 13:10
Opracowania video z komentarzy

Dodaj komentarz ...i/lub link do filmiku video

Zaloguj się do serwisu
Ostatnie komentarze
1.
Naseio Emini
2008-12-02 21:10
Sorry wszystkim: drugi takt jest o jedną strunę wyżej...
Wszelkie materiały i wypowiedzi zamieszczone na www.chords.pl są własnością ich autorów.