Zacznij systematycznie uczyć się grać na gitarze razem ze stroną Moja nauka - będziesz miał/miała do niej dostęp po zalogowaniu się w serwisie

Do szopy, hej pasterze (aranżacja rockowa) - Kolędy i Pastorałki

Opracował -a: rodzina123,
Redaktor: Tomek Pietrzkowski,
Pochodzi z: http://www.chords.pl
Data publikacji: 2008-12-03 00:22
 
Moja nauka


Ups, problem :-/
Zaloguj się Mój śpiewnik


intro


E1--5-----5-----3-----3-------5-----5-----3-----3--------
H2--6-----6-----3-----5-------6-----6-----3-----5--------
G3--5-----7-----3-----3-------5-----7-----3-----3--------
D4--7-----7-----5-----5-------7-----7-----5-----5--------
A5--8-----5-----5-----3-------8-----5-----5-----3--------
E6--x-----x-----3-----x-------x-----x-----3-----x--------


bas


E1-------------------------------------------------------
H2-------------------------------------------------------
G3-------------------------------------------------------
D4--3-----------5-------------3--------------------------
A5--------5-----------3-------------5-----------3--1-0---
E6----------------------------------------3-----------3--


melodia 1


E1-------------------------------------------------------
H2--13--11-10~~-10---------11--10------------------------
G3-----------------12-10~~--------12~~-12--10-9~~--------
D4-------------------------------------------------------
A5-------------------------------------------------------
E6-------------------------------------------------------


E1-------------------------------------------------------
H2--13--11-10~~-10---------11--10------------------------
G3-----------------12-10~~--------12~~--\--(5)~~~~-------
D4-------------------------------------------------------
A5-------------------------------------------------------
E6-------------------------------------------------------


melodia 2


E1---5---------------------------------------------------
H2------8-6~~-6--5-----8--6-5~~-5------------------------
G3-----------------7~~-------------7-5~~-----------------
D4-------------------------------------------------------
A5-------------------------------------------------------
E6-------------------------------------------------------



E1---5---------------------------------------------------
H2------8-6~~-6--5-----8--6-5~~--/--(8)~~~~--------------
G3-----------------7~~-----------------------------------
D4-------------------------------------------------------
A5-------------------------------------------------------
E6-------------------------------------------------------


kolęda  akordy


E1--5-----3-----3-----5-------5-----3-----3-----5--------
H2--6-----3-----5-----6-------6-----3-----5-----6--------
G3--5-----3-----3-----5-------5-----3-----3-----5--------
D4--7-----5-----5-----7-------7-----5-----5-----7--------
A5--8-----5-----3-----8-------8-----5-----3-----8--------
E6--x-----3-----x-----x-------x-----3-----x-----x--------


E1--5-----3-----3-----5-------5-----3-----3-----5--------
H2--6-----3-----5-----6-------7-----3-----5-----6--------
G3--5-----3-----3-----5-------5-----3-----3-----5--------
D4--7-----5-----5-----7-------7-----5-----5-----7--------
A5--8-----5-----3-----8-------5-----5-----3-----8--------
E6--x-----3-----x-----x-------x-----3-----x-----x--------powt.


Kolęda  bas


E1-------------------------------------------------------
H2-------------------------------------------------------
G3-------------------------------------------------------
D4--3-----5-----------3-------3-----5-----------3--------
A5--------------3-------------------------3--------------
E6-------------------------------------------------------


E1-------------------------------------------------------
H2-------------------------------------------------------
G3----------------------------------------------3--------
D4-----------------2-5----------------------2-5---5-3----
A5----0-3-----5--3------0-3----5-3-5----5-3--------------
E6--1-----3-6---------1--------------3-6-----------------


E1-------------------------------------------------------
H2-------------------------------------------------------
G3----------------------------------------------3--3-----
D4-----------------2-5----------------------2-5----------
A5----0-3-----5--3------0-3----5-3-5----5-3--------------
E6-1-----3-6---------1--------------3-6-----------------





kolęda melodia


E1-------------------------------------------------------
H2-----------------------------------10------------------
G3-----10-10--12--10-9-9~~----12-12-----12-10~~----------
D4--10--------------------10-----------------------------
A5-------------------------------------------------------
E6-------------------------------------------------------powt.



E1--------------------------------10---------------------
H2-----10-10--11--10------------11----13--12-13~~--------
G3-------------------12-12~~-12--------------------------
D4--10---------------------------------------------------
A5-------------------------------------------------------
E6-------------------------------------------------------


E1-------------------------------------------------------
H2-----10-10--11--10--------------------10---------------
G3-------------------12-12~~-----12-12-----12-10~~-------
D4--12-----------------------10--------------------------
A5-------------------------------------------------------
E6-------------------------------------------------------

powt. 2 wersy

Dodaj komentarz ...i/lub link do filmiku video

Zaloguj się do serwisu
Ostatnie komentarze
1.
aniadoda5
2013-01-28 12:00
A co znaczą x? Proszę o odpowiedź.
2.
natussia-jot
2008-12-04 19:53
nie lepiej samemu zagrac ?? super opracowane,, naprawde duzo pracy Was to kosztowalo.. Dzieki wielkie;)
3.
Dj-Camil
2008-12-04 17:24
Cudzą pracę trzeba szanować! A tak rozpisać kolędy to na 100% kosztowało masę roboty. A jeśli chcecie sobie posłuchać to możecie przecież słuchać ze strony, bo po co więcej. Wielki szacunek dla Tomka i Jarka:) Pozdrawiam:)
4.
Tomek Pietrzkowski
2008-12-04 15:56
Uważam, że obecna forma (player na stronie) jest wystarczająca. Jarek włożył dużo pracy w to aby te aranżacje powstały i aby opracować tabulatury. Potem moja praca aby to umieścić na stronie. Proszę uszanować naszą decyzję o publikacji tylko w formie odsłuchania na stronie. Życzę udanych aranżacji kolęd! Pozdrawiam, Tomek Pietrzkowski - redaktor naczelny, admin
5.
rodzina123
2008-12-04 13:48
Jako autor tych aranży i nagrań ( Jarek - rodzina123 ; Tomek jako admin strony wklepał opracowania do Chords ) - uważam , że kto chce - niech się próbuje z tego uczyć a nie obraca moimi MP3. Po to właśnie jest taka akcja - jest to materiał do trenowania gry oraz próbka pokazania - że kolędy można grać ciut inaczej... Taby mają tę naukę ułatwić... Pozdrawiam serdecznie wszystkich miłośników gry na gitarze ( a szczególnie tych pracowitych i ambitnych )
6.
666fred
2008-12-04 12:35
Aha, ale z tego co widzę kilka komentarzy niżej to raczej ma to zostać na chordsie ;) więc jak ktoś chce coś tekiego robić to będzie naruszenie... licencji :P
7.
666fred
2008-12-04 12:31
O ludzie. Tabulatury przecie macie, tylko je skopiować. Mp3-ki można samemu sobie zrobić, bierzemy jakikolwiek program do nagrywania dzwięków z kompa i puszczamy nagranie. Np w nero wave editor klika się nagrywanie (czerwone kółko), ustawia sample/bitrate i źródło dzwięku "stereo/mono mixer", klika nagrywanie, w przeglądarce puszczacie nagrania, a jak się skonczą zapisujecie to w nero. Jeżeli Tomek Rodzinny123 się zgodzi to mogę to porobić i umieścić na jakimś serwerze mp3ki, także z zeszłego roku, przecież jest link do kolend na rockowo edycji 2007 :] ps. Tomek, dzięki za te kolendy :D pamiętam jakie na mnie wrażnie rok temu to zrobiło :D szkoda tylko że na klasyku nie brzmiało tak dobrze ;)
8.
Kaśka
2008-12-03 21:09
Czy jest możliwość ściągnięcia skądś tych kolęd, jak również tych z poprzedniego roku?
9.
rodzina123
2008-12-03 18:48
Przepraszam - ale ja się nie zajmuję rozsyłaniem tabulatur i nagrań na maile - są tu , w chords - można taby oglądać i MP3 odsłuchać i w ten sposób się uczyć... Po to właśnie jest ta akcja. Pozdrawiam serdecznie.
10.
Emmaw
2008-12-03 16:35
Ja też bym poprosiła o mp3 i tabulaturę agaw03@vp.pl
Wszelkie materiały i wypowiedzi zamieszczone na www.chords.pl są własnością ich autorów.