Zacznij systematycznie uczyć się grać na gitarze razem ze stroną Moja nauka - będziesz miał/miała do niej dostęp po zalogowaniu się w serwisie

Jezus malusieńki (aranżacja rockowa) - Kolędy i Pastorałki

Opracował -a: rodzina123,
Redaktor: Tomek Pietrzkowski,
Pochodzi z: http://www.chords.pl
Data publikacji: 2008-12-03 00:23
 
Moja nauka


Ups, problem :-/
Zaloguj się Mój śpiewnik


intro - riff


E1--5-----5---5-----5--5---0-----------------------------
H2--5---5-----6---6--------5--------------5--------------
G3--5---------5------------7----------------7------------
D4--5---------7------------6--------------------6--------
A5--7---------5------------7-----------------------------
E6--5---------x------------0-----------------------------powt.


E1-----8--7---5~~~~--------------8-----------------------
H2---------------------------5-6--6-5----5~~\------------
G3-------------------------------------7-----------------
D4-------------------------------------------------------
A5-------------------------------------------------------
E6-------------------------------------------------------


E1-------------------------------------------------------
H2----5-6-5--------------------13-15-15B---15B---15B~~---
G3---------7-7B(7)H5--5-5~~--14--------------------------
D4------------------H7-7---------------------------------
A5-------------------------------------------------------
E6-------------------------------------------------------


E1-------------------------------------------------------
H2-------------------------------------------------------
G3-------------------------------------------------------
D4-------------------------------------------------------
A5-----------5--5----------7--7-----------7--5-----------
E6--5--5----------------------------------------8--7-----powt.


kolęda riff


E1--5---5-5---5--5--5-5--5----0---0-0---0--0--0-0--0-----
H2--5---5-5---5--5--5-5--5----5---5-5---5--5--5-5--5-----
G3--5---5-5---5--5--5-5--5----7---7-7---7--7--7-7--7-----
D4--5---5-5---5--5--5-5--5----6---6-6---6--6--6-6--6-----
A5--7---7-7---7--7--7-7--7----7---7-7---7--7--7-7--7-----
E6--5---5-5---5--5--5-5--5----0---0-0---0--0--0-0--0-----powt.


E1-------------------------------------------------------
H2-------------------------------------------------------
G3--7---------5---------7-----9---7---5------------------
D4--7------5--5---------7-----9---7---5------------------
A5--5------5--3------1~~5-----7---5---3------------------
E6---------3---------------------------------------------powt.


kolęda melodia


E1--8--7--5~~--4--5--7~~--------8--7--5~~--4--5--7~~-----
H2-----------------------5~~~~-----------------------5~~~~
G3-------------------------------------------------------
D4-------------------------------------------------------
A5-------------------------------------------------------
E6-------------------------------------------------------


E1-------------------------------5-----------------------
H2----5--6---6~~--5--6--8---8~~----8--6~~--5~~-----5~~---
G3--7------------------------------------------7~~-------
D4-------------------------------------------------------
A5-------------------------------------------------------
E6-------------------------------------------------------


E1-------------------------------5-----------------------
H2----5--6---6~~--5--6--8---8~~----8--6~~--5~~-----------
G3--7------------------------------------------7~~--5~~~~
D4-------------------------------------------------------
A5-------------------------------------------------------
E6-------------------------------------------------------


druga gitara gra tę samą melodię - oktawę wyżej
( do każdego dźwięku dodaj 12 progów )


drugi głos w końcówce melodii refrenu


E1-------------------------------------------------------
H2-------------------------------6--5-------8~~-6~~-8~~~~
G3------------------------------------7~~----------------
D4-------------------------------------------------------
A5-------------------------------------------------------
E6-------------------------------------------------------


E1-------------------------------------------------------
H2-------------------------------6--5-------8~~-6~~-5~~~~
G3------------------------------------7~~----------------
D4-------------------------------------------------------
A5-------------------------------------------------------
E6-------------------------------------------------------





wstawka


E1--5-----5---5-----5--5------0--------------------------
H2--5---5-----6---6-----------5--------------5-----------
G3--5---------5---------------7----------------7---------
D4--5---------7---------------6--------------------6-----
A5--7---------5---------------7--------------------------
E6--5---------x---------------0--------------------------powt.


E1----------7-8-7-5-7-5-4-5-4----------------------------
H2----------------------------6-5------------------------
G3-------------------------------------------------------
D4-------------------------------------------------------
A5-------------------------------------------------------
E6-------------------------------------------------------


E1---------4-5-7-7b~~~~--7b--7b~~~~--7--7~~~~------------
H2------5-6----------------------------------------------
G3---4-5-------------------------------------------------
D4-------------------------------------------------------
A5-------------------------------------------------------
E6-------------------------------------------------------


druga gitara gra tę samą melodię - oktawę wyżej
( do każdego dźwięku dodaj 12 progów )


kolęda bas


E1-------------------------------------------------------
H2-------------------------------------------------------
G3-------------------------------------------------------
D4-------------------------------------------------------
A5---------------------7--7---7--5-----------------------
E6--5--5---5-7-8--7-5---------------8--7-----------------powt.


E1-------------------------------------------------------
H2-------------------------------------------------------
G3-------------------------------------------------------
D4-------------------------------------------------------
A5--5--5-------3--3-------5--8----7--5--3----------------
E6----------3----------6---------------------------------powt.
Dodał: rockday , 2014-12-07 18:30
Opracowania video z komentarzy

Dodaj komentarz ...i/lub link do filmiku video

Zaloguj się do serwisu
Ostatnie komentarze
1.
rockday
2014-12-07 18:30
Hej tu ROCKDAYPL! Tutaj ALTERNATYWNA wersja kolędy. Krok po kroku pokazuję jak zagrac. Pozdrawiam Wojtek Pietraszek https://www.youtube.com/Rockdaypl
2.
rockday
2014-12-07 18:26
Hej tu ROCKDAYPL! Tutaj poprawna wersja kolędy poprzedni link prowadzi do innej kolędy.Wrzucam moją wersję na gitarę elektryczną kolędy. Krok po kroku pokazuję jak zagrac. Pozdrawiam Wojtek Pietraszek https://www.youtube.com/Rockdaypl
3.
rockday
2014-12-07 18:23
Hej tu ROCKDAYPL! Wrzucam moją wersję na gitarę elektryczną kolędy Bóg się rodzi. Krok po kroku pokazuję jak zagrac. Pozdrawiam Wojtek Pietraszek https://www.youtube.com/Rockdaypl
4.
remo
2011-12-04 13:06
Świetne intro :D Skąd mogę dostać backingtarcki do tych kolęd??
Wszelkie materiały i wypowiedzi zamieszczone na www.chords.pl są własnością ich autorów.