Zacznij systematycznie uczyć się grać na gitarze razem ze stroną Moja nauka - będziesz miał/miała do niej dostęp po zalogowaniu się w serwisie

Oj, Maluśki (aranżacja rockowa) - Kolędy i Pastorałki

Opracował -a: rodzina123,
Redaktor: Tomek Pietrzkowski,
Pochodzi z: http://www.chords.pl
Data publikacji: 2008-12-03 00:23
 
Moja nauka


Ups, problem :-/
Zaloguj się Mój śpiewnik


intro


E1-------------------------------------------------------
H2-------------------------------------------------------
G3-------------------------------------------------------
D4-------------------------------------------------------
A5--2--2----2---5--5-5-5-4-2--2--------------------------
E6--0--0--4-------------------0--0-2-0-3-0--0-2-0-3-0----


E1-------------------------------------------------------
H2-------------------------------------------------------
G3-------------------------------------------------------
D4-------------------------------------------------------
A5--2--2----2---5--5-5-5-4-2--2--------------------------
E6--0--0--4-------------------0--------------------------

powt. 2 wersy


E1------------------------------------------------------------
H2--12----12--------------------------------------------------
G3--11B---11B(11)-9--9----------------------------------------
D4-----------------11-11-9-H11-p9---9-------------------------
A5-------------------------------H11-11-9-H11-p9-\7-9-p7--7-\-
E6------------------------------------------------------H9----

E1------------------------------------------15--15--15-15-(15)---
H2--15-~~~~15--15--15--15~~~~15B~~~~15B~~~15B-15B-15B-15B--15B---
G3--14B~~~~14B-14B-14B-14B~~~------------------------------------
D4---------------------------------------------------------------
A5---------------------------------------------------------------
E6---------------------------------------------------------------

E1--12-15-12--12-------------------------------------------------
H2----------15--15-12-15-12--12----------------------------------
G3-------------------------14--14-12-14-12--12-------------------
D4----------------------------------------14--14-12-14-12--12----
A5-------------------------------------------------------14------
E6---------------------------------------------------------------

E1-------------------------------------------------------
H2-------------------------------------------------------
G3-------------------------------------------------------
D4--14--12-----------------------------------------------
A5---------14--13--12------------------------------------
E6--------------------15--12~~~\-------------------------


kolęda  melodia

1 głos

E1-------------------------------------------------------
H2---------9~~9--9-9-9--9-9-9~~--9-12-9------------------
G3--9--11-------------------------------9-\-8--11~~~~----
D4-------------------------------------------------------
A5-------------------------------------------------------
E6-------------------------------------------------------

E1-------------------------------------------------------
H2--------------------------------------10-9-------------
G3--8--9--11~~11--11-11-11--11-11-11~~11-----8--11--9~~--
D4-------------------------------------------------------
A5-------------------------------------------------------
E6-------------------------------------------------------

powt.

2 głos

E1-------------------------------------------------------
H2------------------------------9------------------------
G3-----8-9~~9--9-9-9--9-9-9~~--9-9--------8~~------------
D4--11-----------------------------11--9-----------------
A5-------------------------------------------------------
E6-------------------------------------------------------


E1-------------------------------------------------------
H2-------------------------------------------------------
G3-------8~~8--8-8-8--8-8-8~~--8-11-8---8--9~~-----------
D4--9-11-----------------------------9-------------------
A5-------------------------------------------------------
E6-------------------------------------------------------

powt.


E1---------------------------------------9---------------
H2--9~~~~~---9-----------------------9-----12--9---------
G3-------------11--9------11--9~~-----------------9--11--
D4---------9-----------9---------------------------------
A5-------------------------------------------------------
E6-------------------------------------------------------


E1---------------------------------------9---------------
H2--9~~~~~---9-----------------------9-----12--9---------
G3-------------11--9----11--9~~-------------------9--11--
D4---------9-----------9---------------------------------
A5-------------------------------------------------------
E6-------------------------------------------------------

2 głos refren

E1-------------------------------------------------------
H2---12~~~~-----12--10--9------10--9---------------------
G3-------------------------------------------------------
D4-----------9--------------9----------------------------
A5-------------------------------------------------------
E6-------------------------------------------------------
powt.




kolęda  riff


1 głos  zwrotka


E1-------------------------------------------------------
H2-------------------------------------------------------
G3-------------------------------------------------------
D4-------------------------------------------------------
A5--7~~6~~4~~2~~9~~8~~7~~8~~2~~222~~222~~2~~7~~6~~4~~2~~-
E6-------------------------------------------------------


E1-------------------------------------------------------
H2-------------------------------------------------------
G3-------------------------------------------------------
D4---------------------------------------------------9-9~~
A5--7~~6~~4~~2~~9~~8~~7~~8~~2~~222~~222~~2~~7~~6~~7~~----
E6-------------------------------------------------------


2 głos  zwrotka


E1-------------------------------------------------------
H2-------------------------------------------------------
G3-------------------------------------------------------
D4--6~~4~~6~~3~~-----------------------------------------
A5--------------4~~4~~4~~4~~2~~222~~222~~2~~7~~6~~4~~2~~-
E6-------------------------------------------------------


E1-------------------------------------------------------
H2-------------------------------------------------------
G3-------------------------------------------------------
D4--6~~4~~6~~3~~----------------------------------6~~----
A5--------------4~~4~~4~~4~~2~~222~~222~~2~~7~~6~~-------
E6-------------------------------------------------------






1 głos  refren


E1-------------------------------------------------------
H2-------------------------------------------------------
G3-------------------------------------------------------
D4-------------------------------------------------------
A5--7~~6~~4~~2~~-----------------------------------------
E6-------------------------------------------------------


2 głos  refren


E1-------------------------------------------------------
H2-------------------------------------------------------
G3-------------------------------------------------------
D4--9~~7~~6~~4~~-----------------------------------------
A5-------------------------------------------------------
E6-------------------------------------------------------

Dodaj komentarz ...i/lub link do filmiku video

Zaloguj się do serwisu
Ostatnie komentarze
1.
stac
2008-12-05 20:36
totalna przeginka. super
2.
zolt
2008-12-05 15:51
Fajna sprawa ja bym proponował dodać efekt flangera dla drugiej gitary co pracuje w tle podaczas gdy pierwsza gra melodię jak dla mnie brzmi świetnie pozdrawiam serdecznie
3.
Tomek Pietrzkowski
2008-12-05 01:02
A to mój debeściak :)
4.
martius
2008-12-03 18:11
WOW! Oj, Maluśki! To wykonanie mi się podoba!
5.
jacekkolodziejcz
2008-12-03 18:00
Rewelacja. Takiego Maluśkiego nie słyszałem jak żyje już prawie 60 lat!!!!!!!!!! jacek
Wszelkie materiały i wypowiedzi zamieszczone na www.chords.pl są własnością ich autorów.