Zacznij systematycznie uczyć się grać na gitarze razem ze stroną Moja nauka - będziesz miał/miała do niej dostęp po zalogowaniu się w serwisie

Z narodzenia Pana (aranżacja rockowa) - Kolędy i Pastorałki

Opracował -a: rodzina123,
Redaktor: Tomek Pietrzkowski,
Pochodzi z: http://www.chords.pl
Data publikacji: 2008-12-03 00:23
 
Moja nauka


Ups, problem :-/
Zaloguj się Mój śpiewnik


intro


E1-----3--3------0--0------0--0------2--2------------------
H2-----3--3------0--0------1--1------1--1------------------
G3-----0--0------0--0------0--0------2--2------------------
D4-----0--0------2--2------2--2---0------------------------
A5-----2--2------2--2---0----------------------------------
E6--3---------0--------------------------------------------


E1-----3--3------0--0---0----------------------------------
H2-----3--3------0--0---1----------------------------------
G3-----0--0------0--0---0----------------------------------
D4-----0--0------2--2---2----------------------------------
A5-----2--2------2--2---0----------------------------------
E6--3---------0--------------------------------------------


bas


E1-------------------------------------------------------
H2-------------------------------------------------------
G3-------------------------------------------------------
D4-------------------------------------------------------
A5------------7--------------------5---------------------
E6--3-------------------5------------8-7--5--------------


E1-------------------------------------------------------
H2-------------------------------------------------------
G3-------------------------------------------------------
D4-------------------------------------------------------
A5------------7------------------------------------------
E6--3-------------------5~~~~----------------------------



intro solo


1 głos


E1-------------------------------------------------------
H2-------------------------------------------------------
G3--------12-14-12--12-14-------12-14-12--12-------------
D4---12-14--------14-------12-14--------14---------------
A5-------------------------------------------------------
E6-------------------------------------------------------


E1-------------------------------------------------------
H2--------------------------15-----15--------------------
G3--------12-14-12--12-14---14B----14B-------------------
D4---12-14--------14-------------------------------------
A5-------------------------------------------------------
E6-------------------------------------------------------


2 głos


E1-------------------------------------------------------
H2-------------------------------------------------------
G3--------7-9-7---7-9-----------7-9-7---7----------------
D4----7-9-------9-----------7-9-------9------------------
A5-------------------------------------------------------
E6-------------------------------------------------------


E1-------------------------------------------------------
H2---------------------------10-----10-------------------
G3--------7-9-7---7-9--------9B-----9B-------------------
D4----7-9-------9----------------------------------------
A5-------------------------------------------------------
E6-------------------------------------------------------


kolęda riff - zwrotka


E1-----3--3------3--3------2--2------3--3----------------
H2-----3--3------3--3------1--1------3--3----------------
G3-----0--0------0--0------2--2------0--0----------------
D4-----0--0------2--2---0------------0--0----------------
A5-----2--2---3----------------------2--2----------------
E6--3-----------------------------3----------------------powt.


kolęda riff - refren


E1-----3--3------2--2------3--3------2--2----------------
H2-----3--3------1--1------3--3------1--1----------------
G3-----0--0------2--2------0--0------2--2----------------
D4-----0--0---0------------0--0---0----------------------
A5-----2--2----------------2--2--------------------------
E6--3-------------------3--------------------------------


E1-----0--0------0--0------2--2------3--3----------------
H2-----0--0------1--1------1--1------3--3----------------
G3-----0--0------0--0------2--2------0--0----------------
D4-----2--2------2--2---0------------0--0----------------
A5-----2--2---0----------------------2--2----------------
E6--0-----------------------------3----------------------

powt. 2 wersy


2 gitara ( refren )


E1-------------------------------------------------------
H2------------7~~------------------7~~-------------------
G3--12~~~~----7~~-------12~~~~-----7~~-------------------
D4-------------------------------------------------------
A5-------------------------------------------------------
E6-------------------------------------------------------


E1-------------------------------------------------------
H2-------------------------------------------------------
G3--12~~~~----~7~~~~-----~7~~~~----~12~~~~---------------
D4-------------------------------------------------------
A5-------------------------------------------------------
E6-------------------------------------------------------


powt. 2 wersy


kolęda  bas  zwrotka


E1-------------------------------------------------------
H2-------------------------------------------------------
G3-------------------------------------------------------
D4-------------------------------------------------------
A5-------------3----------5------------------------------
E6--3-------------------------------3--------------------powt.


kolęda  bas  refren


E1-------------------------------------------------------
H2-------------------------------------------------------
G3-------------------------------------------------------
D4----------------4--7-----------------4--7--------------
A5-----2--5----5------------2--5----5--------------------
E6--3--------------------3-------------------------------


E1-------------------------------------------------------
H2-------------------------------------------------------
G3-------------------------------------------------------
D4-------------------------------------------------------
A5--7--------------------5-------------------------------
E6-------------5--------------------3--3-----------------

powt. 2 wersy



kolęda melodia zwrotka


E1-------------12--10~~----------------------------------
H2---------------------13---12-12-10-10------------------
G3--12-11-12-----------------------------12~~~~----------
D4-------------------------------------------------------
A5-------------------------------------------------------
E6-------------------------------------------------------powt.


kolęda melodia refren


1 głos


E1-------------------------------------------------------
H2--15-12-15-15--15-13-13--12---15-12-15-15--15-13-13--12
G3-------------------------------------------------------
D4-------------------------------------------------------
A5-------------------------------------------------------
E6-------------------------------------------------------


E1-------------12--10~~----------------------------------
H2--12-11-12-----------13---12-12-10-10------------------
G3---------------------------------------12~~~~----------
D4-------------------------------------------------------
A5-------------------------------------------------------
E6-------------------------------------------------------


powt. 2 wersy


2 głos


E1-------------------------------------------------------
H2--12--12-12--12-10-10--12---12--12-12--12-10-10--12----
G3----12------------------------12-----------------------
D4-------------------------------------------------------
A5-------------------------------------------------------
E6-------------------------------------------------------


E1-------------------------------------------------------
H2-------------13--12~~10---12-12-11-11--12~~~~----------
G3--12-11-12---------------------------------------------
D4-------------------------------------------------------
A5-------------------------------------------------------
E6-------------------------------------------------------

powt. 2 wersy

Dodaj komentarz ...i/lub link do filmiku video

Zaloguj się do serwisu
Wszelkie materiały i wypowiedzi zamieszczone na www.chords.pl są własnością ich autorów.