Zacznij systematycznie uczyć się grać na gitarze razem ze stroną Moja nauka - będziesz miał/miała do niej dostęp po zalogowaniu się w serwisie

Bóg się rodzi (wersja reggae) - Kolędy i Pastorałki

Opracował -a: rodzina123,
Redaktor: Tomek Pietrzkowski,
Pochodzi z: http://www.chords.pl
Data publikacji: 2008-12-09 22:55
 
Moja nauka


Ups, problem :-/
Zaloguj się Mój śpiewnik


intro : bas + akordy


E1-------------------------------------------------------
H2-------------------------------------------------------
G3-------------------------------------------------------
D4--------------4-5-7----7-9-7--5-7-5--4-5-4---4---------
A5----2-3-5-/-7-------------------------------7-7--------
E6--3----------------------------------------------------

    G                    D


E1-------------------------------------------------------
H2-------------------------------------------------------
G3-------------------------------------------------------
D4-------3-3-3-3---------------4-5-4-4-------------------
A5--3------------3--3----5----------7-7-5----------------
E6-------------------------------------------------------

    C                    D



KEYBOARD


*  akordy

*  melodia 1  :  G A H G   G A H G F#

*  melodia 2  :  H C D H   H C D H A




zwrotka  :  bas + akordy


E1-------------------------------------------------------
H2-------------------------------------------------------
G3-------------------------------------------------------
D4-------------------------------------------------------
A5---------5------------------------7--------------------
E6--3-------------3----------5--------------5------------

    G                  C     a7                  D7


E1-------------------------------------------------------
H2-------------------------------------------------------
G3-------------------------------------------------------
D4--------5-7-5--4-5-4-----------------------------------
A5---------------------------5-7-5--3-5-3--2-3-2---2-----
E6--3---------------------------------------------5-5----

    G                        D7

powt. zwrotkę




refren :  bas + akordy


E1-------------------------------------------------------
H2-------------------------------------------------------
G3-------------------------------------------------------
D4-------------------------------------------------------
A5--5-----5-5-5-5-----5--------5-----------5-------------
E6-----5-----------5--------3-----3-3-3-3----3-----------

    D7                      G

powt.  x 2



E1-------------------------------------------------------
H2-------------------------------------------------------
G3-------------------------------------------------------
D4-------------------------------------------------------
A5--5-----5-5-5-5----5--------5----7-5-------------------
E6-----5-----------5-------3----------8-7----------------

    D7                     G       E


E1-------------------------------------------------------
H2-------------------------------------------------------
G3-------------------------------------------------------
D4-------------------------------------------------------
A5------7---------7-----------5--------------------------
E6--5---------5-----------5--------3---------------------

    a7                    a7  D7   G G






kolęda  :  melodia 1


E1----------------------------------------------------------
H2----8--8---7--5---5-5-5-----------8-----------------------
G3-------------------------7--5----7-7---5-4---4-(4b-4)--2~~
D4--5-----------------------------9------------------------- powt.
A5----------------------------------------------------------
E6----------------------------------------------------------



E1-------------------------------------------------------
H2-------------------------------------------------------
G3--5~~-----4--5---7--7---4---7~~------------------------
D4-------7-----------------------------------------------   x 3
A5-------------------------------------------------------
E6-------------------------------------------------------


E1-------------------------------------------------------
H2--5~~----5---------------------------------------------
G3------7-----7--7---------------------------------------
D4-----------------4--7---5~~----------------------------
A5-------------------------------------------------------
E6-------------------------------------------------------



kolęda  :  melodia 2  ( oktawę wyżej )


E1-----15-15--14-12---12-12-12---------------------------
H2-------------------------------15-13-------------------
G3--12---------------------------------------------------
D4-------------------------------------------------------
A5-------------------------------------------------------
E6-------------------------------------------------------


E1--------15---------------------------------------------
H2--12-15----15---13-12---12-(12b-12)--------------------
G3-------------------------------------14~~--------------
D4-------------------------------------------------------
A5-------------------------------------------------------
E6-------------------------------------------------------

powt.  2  wersy



E1-------------------------------------------------------
H2--13~~----12-13---15-15-12--15~~-----------------------
G3-------14----------------------------------------------
D4------------------------------------------------------- x 3
A5-------------------------------------------------------
E6-------------------------------------------------------



E1--12~~----12-------------------------------------------
H2-------15----15---15-----------------------------------
G3---------------------11-14--12~~-----------------------
D4-------------------------------------------------------
A5-------------------------------------------------------
E6-------------------------------------------------------
Dodał: pampalini1989, 2015-12-16 21:31
Opracowania video z komentarzy

Dodaj komentarz ...i/lub link do filmiku video

Zaloguj się do serwisu
Ostatnie komentarze
1.
eyepower
2008-12-23 20:10
Dla mnie spoX xD ::: jestem początkującym gitarzystą więc się nie znam ale mi się PODOBA {}
2.
rodzina123
2008-12-14 19:09
Jako twórca tych wersji kolęd nie zajmuję się nagrywaniem i wysyłaniem podkładów do nich. Sorry - ale nie mam na to czasu - zbyt dużo różnych zajęć mam. Pozdrawiam.
3.
Robak1994
2008-12-14 17:16
zarąbiste ;d, mam pytanie - idzie gdzieś dostać podkład pod klawisze? Bo nie mamy klawiszowca.;/ Z góry dzięki :)
Wszelkie materiały i wypowiedzi zamieszczone na www.chords.pl są własnością ich autorów.