Zacznij systematycznie uczyć się grać na gitarze razem ze stroną Moja nauka - będziesz miał/miała do niej dostęp po zalogowaniu się w serwisie

Mizerna cicha (wersja rockowa) - Kolędy i Pastorałki

Opracował -a: rodzina123,
Redaktor: Tomek Pietrzkowski,
Pochodzi z: http://www.chords.pl
Data publikacji: 2008-12-09 22:55
 
Moja nauka


Ups, problem :-/
Zaloguj się Mój śpiewnik


intro riff  +  melodia


guitar 1 ( lewy kanał )


E1-------------------------------------------------------
H2-------------------------------------------------------
G3--9-----------4-----------9-----------4----------------
D4--7----9------2-4--2------7----9------2-4--9-----------
A5-------7--------2--0-----------7--------2--7-----------
E6-------------------------------------------------------


E1-------------------------------------------------------
H2-------------------------------------------------------
G3--9-----------4-----------9------4---------------------
D4--7----9------2-4--2------7--9---2--4---9-9------------
A5-------7--------2--0---------7------2---7-7------------
E6-------------------------------------------------------


guitar 2 ( prawy kanał )


E1-------------------------------------------------------
H2--10---9------5-4--2-----10---9-------5-4--9-----------
G3---9---9------4-4--2------9---9-------4-4--9-----------
D4--11---9------6-4--2-----11---9-------6-4--9-----------
A5-------------------------------------------------------
E6-------------------------------------------------------


E1-------------------------------------------------------
H2--10---9------5-4--2-----10--9---5--4---9-9------------
G3---9---9------4-4--2------9--9---4--4---9-9------------
D4--11---9------6-4--2-----11--9---6--4---9-9------------
A5----------------------------------------7-7------------
E6-------------------------------------------------------


guitar 3 -  melodia


E1-------------------------------------------------------
H2------------------------9b--9~~------------------------
G3---------9~~-9-8---------------11~~9~~-9-9-8--9~~------
D4----9--11---------11~~---------------------------------
A5-------------------------------------------------------
E6-------------------------------------------------------


E1-------------------------------------------------------
H2------------------------9b--9~~------------------------
G3---------9~~-9-8----------------9-8---9--9~~-----------
D4----9--11---------11~~---------------------------------
A5-------------------------------------------------------
E6-------------------------------------------------------



przejście do kolędy


E1------0------0-----------------------------------------
H2----5------5----5--------------------------------------
G3--8------8--------------4444-4444-4444-4444------------
D4------------------------4444-4444-4444-4444------------
A5------------------------2222-2222-2222-2222------------
E6-------------------------------------------------------



kolęda riff


E1-------------------------------------------------------
H2-------------------------------------------------------
G3-------------------------------------------------------
D4--9-9---9-9---5-5---4-4-----------------4-4--4-4-------
A5--7-7---6-6---2-2---2-2---2-2-----5-5---2-2--2-2-------
E6--------------------------0--0-2~~3-3------------------powt.



Zagrywki solowe :


1.


E1--14H15-14-12H14-12---12-------------------------------
H2--------------------15--15-13H15-13-12H13-12---12------
G3---------------------------------------------14--14----
D4-------------------------------------------------------
A5-------------------------------------------------------
E6-------------------------------------------------------


E1-------------------------------------------------------
H2-------------------------------------------------------
G3--12H14-12-11H12-11---11-------------------------------
D4--------------------14--14-12H14-12--------------------
A5------------------------------------15---14~~----------
E6-------------------------------------------------------



2.


E1-------15-12----------------------------------------------
H2---X(12)----15-12-----------------------------------------
G3-X(12)----------14B(14)H12--12----------------------------
D4-------------------------H14-14-12H14p12------------------
A5----------------------------------------H14H12\(10)-------
E6--------------------------------------------------H12-10~~\


3.


E1-------------------------------------------------------
H2-------------------------------------------------------
G3--------------------------------------------------12---
D4---------------------------------12---12H14-12H14------
A5-------10--10H12-10H12/(14)-12H14---14-----------------
E6--10H12--12--------------------------------------------


E1-------------------------------12---12--15B-15-12~~----
H2---------------12---12H15-12H15---15-------------------
G3----12H14-12H14---14-----------------------------------
D4--14---------------------------------------------------
A5-------------------------------------------------------
E6-------------------------------------------------------




kolęda  -  melodia  1


E1-------------------------------------------------------
H2-------------------------------------------------------
G3-4~~4--4-----------------------------------------4~~4~~
D4----------7~~7~~5~~5--5--4~~----------4--5--4----------
A5--------------------------------7~~7~~--------7--------
E6----------------------------7~~------------------------


E1-------------------------------------------------------
H2-------------------------------------------------------
G3-4~~4--4-----------------------------------------------
D4----------7~~7~~5~~5--5--4~~----------4--5---4---------
A5--------------------------------7~~7~~-----------7~~7~~
E6----------------------------7~~------------------------





kolęda  -  melodia  2  ( oktawę wyżej )


E1---------------------------------------------------------------
H2-12~~12-12-----------------------------------------------------
G3-----------14~~14~~12~~12-12-11~~------------11-12-11--12~~12~~
D4-------------------------------------14~~14~~--------14--------
A5---------------------------------14~~--------------------------
E6---------------------------------------------------------------


E1---------------------------------------------------------------
H2-12~~12-12-----------------------------------------------------
G3-----------14~~14~~12~~12-12-11~~------------11-12--11---------
D4-------------------------------------14~~14~~----------14~~14~~
A5---------------------------------14~~--------------------------
E6---------------------------------------------------------------



zakończenie ( grane techniką SHRED )


solo 1


E1-------------------------------------------------------
H2-------------------------------------------------------
G3--12-14-11-12-9-11-7-9-5-7-4-5-2-4-2-4-----------------
D4-------------------------------------------------------
A5-------------------------------------------------------
E6-------------------------------------------------------


solo 2


E1-------------------------------------------------------
H2--12-13-10-12-8-10-7-8-5-7-4-5-2-4-2-4-----------------
G3-------------------------------------------------------
D4-------------------------------------------------------
A5-------------------------------------------------------
E6-------------------------------------------------------

Dodaj komentarz ...i/lub link do filmiku video

Zaloguj się do serwisu
Ostatnie komentarze
1.
tantalize-nius
2008-12-12 19:59
Wykonianie bardzo, ale to bardzo mi się podoba! :) Chciałabym wykorzystać je jako podkład na konkursie, tylko czy dałoby rade coś zrobić?
2.
rodzina123
2008-12-11 12:17
http://pl.youtube.com/watch?v=j2CoBamcHMA Tu jest klasyczne wykonanie przez śpiewaczkę operową z towarzyszeniem orkiestry - kliknij ti i poznasz tę melodię. Pozdrawiam.
3.
kitka22
2008-12-11 11:00
Super:)tylko ze tego nie znam:( http://www.gify.liq.pl/gify_2/rosliny/kwiatki/kwiatki_www_gify_liq_pl%20(169).gif
Wszelkie materiały i wypowiedzi zamieszczone na www.chords.pl są własnością ich autorów.