Zacznij systematycznie uczyć się grać na gitarze razem ze stroną Moja nauka - będziesz miał/miała do niej dostęp po zalogowaniu się w serwisie

Gdy śliczna Panna (tab) - Kolędy i Pastorałki

Dodał -a: melody232,
Redaktor: Tomek Pietrzkowski,
Data publikacji: 2009-11-18 00:06
 
Moja nauka


Ups, problem :-/
Zaloguj się Mój śpiewnik


    C                        F
e|-------------------0----|--1----------1------------|
H|--1-----------3-------1-|-----1----1--------1------|
G|-----0-----0------------|--------2-------2----2----|
D|--------2---------------|-------------3------------|
A|--3--------------3------|--------------------------|
E|------------------------|--1-----------------------|


    Gm         F     C                   F
|---3----6-----5-----3---|---3-----------1----------|
|------------------------|------1-----1-----1-------|
|------3----3-----3----0-|---------0------------2---|
|---5----------3---------|-----------------------3--|
|------------------------|---3----------------------|
|------------------------|---------------1----------|


   C                        F
|-------------------0----|--1-----------1-----------|
|--1-----------3-------1-|-----1-----2---------1----|
|-----0-----0------------|--------2---------2-----2-|
|--------2---------------|--------------3-----------|
|--3--------------3------|--------------------------|
|------------------------|--1-----------------------|


   Gm          F     C                  F
|--3-----6-----5-----3---|--3-----------1-----------|
|------------------------|-----1-----1-----1--------|
|-----3-----3-----3----0-|--------0-----------2-----|
|--5-----------3---------|-----------------------3--|
|------------------------|--3-----------------------|
|------------------------|--------------1-----------|


   Dm7                      C
|--5-----------5---------|--------------------------|
|--------8-----------6---|--8-----------------------|
|--------5-----------5---|-----5-----5--------5-----|
|-----7-----7-----7----7-|--------5-------5------5--|
|--5-----------5---------|--7-----------7-----------|
|------------------------|--------------------------|


                            A#          F
|--0-----3-----1----0----|--------------------------|
|------------------------|--3-----------1-----------|
|-----0-----0-----0----0-|-----3-----3-----2----2---|
|--------2----------2----|--------3----------3------|
|--3-----------3---------|--1-----------------------|
|------------------------|--------------1-----------|


   Dm7                      A#
|--5-----------5---------|--6-----------------------|
|--------8----------6----|-----6-----6--------6-----|
|--------5----------5----|--------7--------7------7-|
|-----7-----7-----7----7-|--------------8-----------|
|--5-----------5---------|--8-----------------------|
|------------------------|--------6-----------------|


   F                C                  F
|--5----8-----6--5--3--1-|--3----------1------------|
|--6----6-----6----------|----------1-------------1-|
|----5-----5--------0----|-------0-------------2----|
|--7----------0----------|----2------------3--------|
|------------------------|--3-----------------------|
|------------------------|-------------1------------|


                                                 F7M
|------------------------|-------------------|---0-------|
|------------------------|-------------------|---1-------|
|--------2---------------|---------2---------|---2-------|
|-----3----3-------------|-----3------3------|---3-------|
|----------------0--1----|-------------------|-----------|
|--1----------1----------|--1-------------1--|-----------|
Dodał: rosapp, 2014-12-09 11:57
Opracowania video z komentarzy

Dodaj komentarz ...i/lub link do filmiku video

Zaloguj się do serwisu
Ostatnie komentarze
1.
rockday
2014-12-07 18:13
Hej tu ROCKDAYPL! Wrzucam moją wersję ALTERNATYWNĄ tej pieknej kolędy na gitarę elektryczną kolędy Bóg się rodzi. Pozdrawiam Wojtek Pietraszek
2.
rockday
2014-12-07 17:46
Hej tu ROCKDAYPL! Wrzucam moją wersję na gitarę elektryczną tej kolędy. Krok po kroku pokazuję jak zagrac.
Wszelkie materiały i wypowiedzi zamieszczone na www.chords.pl są własnością ich autorów.