Zacznij systematycznie uczyć się grać na gitarze razem ze stroną Moja nauka - będziesz miał/miała do niej dostęp po zalogowaniu się w serwisie

Mizerna cicha TAB - Kolędy i Pastorałki

Dodał -a: melody232,
Redaktor: Tomek Pietrzkowski,
Data publikacji: 2009-11-18 00:06
 
Moja nauka


Ups, problem :-/
Zaloguj się Mój śpiewnik


    Em                  B7                 Em7
e|--7-----7----7-----|--5----------5-----|--3----3----3------
H|--8-----8----8-----|--4----4-----4-----|--3----3----3------
G|-----9-----9----9--|----4-----4-----4--|-----0----0----0---
D|-------------------|-------------------|-------------------
A|--7----------------|--6----------------|-------------------
E|-------------------|-------------------|--0----------------


   B7                  Em                  Bm7
|--2----------------|--0-----0-----2----|--3----2-----0-----
|--4----------0-----|--0-----0-----0----|--0----0-----0-----
|--2----------------|-----0-----0-----0-|-----2----2----2---
|-------4-----------|--2----------------|--0----------------
|-----2----0--3--2--|-------------------|-------------------
|-------------------|-------------------|-------------------


   Bm                  B13-                Em
|--7----------------|--7---------0---3--|--7-----7-----7----
|--7--0-----0-----0-|--0-----0----------|--8-----8-----8----
|--7-----7-----6----|-----0-------------|-----9-----9-----9-
|-------------------|-----4-------------|-------------------
|-------------------|-------------------|--7----------------
|-------------------|-------------------|-------------------


   B7          B9      Em7   Em            B7
|--5-----------5----|--3-----3-----3----|--2----------------
|--4-----4-----4----|--3-----0-----0----|--4---------0------
|-----4-----4-----4-|-----0-----0-----0-|--2----------------
|-------------------|-------------------|-------4-----------
|--6-----------4----|-------------------|-----2---2--3--2---
|-------------------|--0----------------|-------------------


   Em                  Bm7                 Esus4
|--0-----0-----2----|--3---------2------|--0----------------
|--0-----0-----0----|--0---0-----0------|--------0----------
|-----0-----0-----0-|----2----2-----2---|-----2-------------
|--2----------------|--0----------------|--2--------2-------
|-------------------|-------------------|-------------------
|-------------------|-------------------|--------------0----


  Em
|--0----------------||
|---0---------------||
|----0--------------||
|-----2-------------||
|------2------------||
|-------0-----------||

Dodaj komentarz ...i/lub link do filmiku video

Zaloguj się do serwisu
Wszelkie materiały i wypowiedzi zamieszczone na www.chords.pl są własnością ich autorów.