Zacznij systematycznie uczyć się grać na gitarze razem ze stroną Moja nauka - będziesz miał/miała do niej dostęp po zalogowaniu się w serwisie

Lulajże Jezuniu - Kolędy i Pastorałki

Dodał -a: melody232,
Redaktor: Tomek Pietrzkowski,
Data publikacji: 2009-11-18 00:06
 
Moja nauka


Ups, problem :-/
Zaloguj się Mój śpiewnik


    A                            Bm7
e|------------------------|--0----------------------|
H|--2-----2------2--------|--2---3-----2------------|
G|--2-----2----2----------|------2-----2----2-------|
D|-----2-----2------2-----|--------0-----0---0------|
A|--0-----------0---------|------2------------------|
E|------------------------|-------------------------|


   E             E7          D       A    Asus2
|-------------------------|--2-------0--------------|
|--0------0------3--------|--3-------2-----0--------|
|--1------1----------1----|-------2-----2---2-------|
|-----2-------2-----------|--0---------------2------|
|-------------------------|----------0----------2---|
|--0-------------0--------|-------------------------|


   A                         Bm7
|-------------------------|--0----------------------|
|--2-----2--------2-------|--2---3----2----3--------|
|--2-----2------2---------|------2----2----2--------|
|-----2------2--------2---|--0------0----0-----0----|
|--4--------------4-------|------2------------------|
|-------------------------|-------------------------|


   E                  E7     D     A
|------------------0------|-------------------------|
|--0-------------0----3---|--3-----2----------------|
|--1-----------1----------|-----2--2----------------|
|-----2------2------------|--0--------2-------------|
|----------2--------------|--------0----------------|
|--0-----0----------------|----------------2----4---|


   A                         D             F#
|--0-------0---------5--4-|--2-----2-------2---0----|
|--2-------2--------2-----|--3---------3---2--------|
|------2-------2---2------|-----2----------3--------|
|-----------------2-------|--0-----0-------4--------|
|--0-------------0--------|-------------------------|
|-------------------------|-------------------------|


   Bm7            D                A
|------------------2------|--2-----0----------------|
|--3------3-------3-------|--3-----2----------------|
|--2------2------2----2---|------------2------------|
|-----0------0--0---------|-----0----------2----0---|
|--2----------------------|--------0----------------|
|-------------------------|-------------------------|


                                Bm7
|-------------------------|--0----------------------|
|--2-----2-------2--------|--2---3-----2-----3------|
|--2-----2-----2----------|------2-----2-----2------|
|-----2------2-------2----|---------0-----0-----0---|
|--4-------------4--------|--0---2------------------|
|-------------------------|-------------------------|


   E                   E7
|-----------------0-------|-------------------------|
|--0------------0------3--|--3-----2----------------|
|--1----------1-----------|-----2--2----------------|
|-----2-----2-------------|--0--------2-------------|
|---------2---------------|--------0----------------|
|--0----0-----------------|--------------2----4-----|



   A                         D             F#
|--0-------0---------5--4-|--2-----2-------2---0----|
|--2-------2--------2-----|--3---------3---2--------|
|------2-------2---2------|-----2----------3--------|
|-----------------2-------|--0-----0-------4--------|
|--0-------------0--------|-------------------------|
|-------------------------|-------------------------|


   Bm7            D                A
|------------------2------|--2-----0----------------|
|--3------3-------3-------|--3-----2----------------|
|--2------2------2----2---|------------2------------|
|-----0------0--0---------|-----0----------2----0---|
|--2----------------------|--------0----------------|
|-------------------------|-------------------------|


                                Bm7
|-------------------------|--0----------------------|
|--2-----2-------2--------|--2---3-----2-----3------|
|--2-----2-----2----------|------2-----2-----2------|
|-----2------2-------2----|---------0-----0-----0---|
|--4-------------4--------|--0---2------------------|
|-------------------------|-------------------------|


   E                   E7
|-----------------0-------|-------------------------|
|--0------------0------3--|--3-----2----------------|
|--1----------1-----------|-----2--2----------------|
|-----2-----2-------------|--0--------2-------------|
|---------2---------------|--------0----------------|
|--0----0-----------------|--------------2----4-----|



|----------4--||
|--------2----||
|------2------||
|----2--------||
|--0----------||
|-------------||
Dodał: rockday , 2014-12-22 12:54
Opracowania video z komentarzy

Dodaj komentarz ...i/lub link do filmiku video

Zaloguj się do serwisu
Ostatnie komentarze
1.
l
2015-12-10 20:46
a czy ktoś mógłby pokazać jak to zagrać?
2.
rockday
2014-12-22 12:54
Witajcie tu Wojtek Pietraszek z Kanału ROCKDAYpl z Youtube, wrzucam moje melodyczne METALOWE wykonanie tej kolędy. Zapraszam do obejrzenia :) Pozdrawiam Wojtek Pietraszek ROCKDAY https://www.youtube.com/user/Rockdaypl
3.
rockday
2014-12-22 12:45
Witajcie tu Wojtek Pietraszek z Kanału ROCKDAYpl z Youtube, wrzucam moje melodyczne wykonanie tej kolędy. Zapraszam do obejrzenia :) Pozdrawiam Wojtek Pietraszek ROCKDAY https://www.youtube.com/user/Rockdaypl
4.
rybazmarsa88
2011-11-28 17:34
nie rozumiem ludzi.. jest to najpiękniejsze opracowanie Lulajże Jezuniu na necie, a wy sie podniecacie jakimś melodyjkami na jedna strunę;/
Wszelkie materiały i wypowiedzi zamieszczone na www.chords.pl są własnością ich autorów.