Zacznij systematycznie uczyć się grać na gitarze razem ze stroną Moja nauka - będziesz miał/miała do niej dostęp po zalogowaniu się w serwisie

Z Narodzenia Pana (tab) - Kolędy i Pastorałki

Opracował -a: Weronikusiaa,
Dodał -a: Weronikusiaa,
Redaktor: Tomek Pietrzkowski,
Data publikacji: 2009-12-24 13:24
 
Moja nauka


Ups, problem :-/
Zaloguj się Mój śpiewnik


kolęda melodia zwrotka


E1-------------5--3~~------------------------------------
H2---------------------6---5-5-3-3-----------------------
G3---5-4-5-------------------------5~~~~-----------------
D4-------------------------------------------------------
A5-------------------------------------------------------
E6-------------------------------------------------------powt.


kolęda melodia refren


E1-------------------------------------------------------
H2--8-5-8-8--8-6-6--5---8-5-8-8--8-6-6--5----------------
G3-------------------------------------------------------
D4-------------------------------------------------------
A5-------------------------------------------------------
E6-------------------------------------------------------


E1-------------5--3~~------------------------------------
H2--5-4-5--------------6---5-5-3-3-----------------------
G3----------------------------------------5~~~~----------
D4-------------------------------------------------------
A5-------------------------------------------------------
E6-------------------------------------------------------


powt. 2 wersy
Dodał: wojtek_n, 2015-11-25 21:11
Opracowania video z komentarzy

Dodaj komentarz ...i/lub link do filmiku video

Zaloguj się do serwisu
Ostatnie komentarze
1.
kris200
2016-12-23 19:18
Z Narodzenia Pana - wersja na gitarę klasyczną, ale nie na pojedynczych dźwiękach... http://struna-gitarowa.ct8.pl/index.php/2016/12/04/z-narodzenia-pana-koleda-tabulatura/
Wszelkie materiały i wypowiedzi zamieszczone na www.chords.pl są własnością ich autorów.