Zacznij systematycznie uczyć się grać na gitarze razem ze stroną Moja nauka - będziesz miał/miała do niej dostęp po zalogowaniu się w serwisie

Przybieżeli do Betlejem w A bas - Kolędy i Pastorałki

Opracował -a: naza666,
Dodał -a: naza666,
Redaktor: michassel,
Pochodzi z: http://www.chords.pl
Data publikacji: 2009-12-28 15:19
 
Moja nauka


Ups, problem :-/
Zaloguj się Mój śpiewnik


G||--------------|------------|--9-11--|--9-----||
D||-----------9--|11-9--11-12-|--------|--------|| x 2
A||--12-11-12----|------------|--------|--------||
E||--------------|------------|--------|--------||


G||-----14-9--|--11-9------|--------11--9|---------|
D||-----------|-------12-11|-12-12-------|12--11--9|
A||-----------|------------|-------------|---------|
E||-----------|------------|-------------|---------|

   --------9--|-----------||
   --11-12----|11--9------||
   -----------|------12---||
   -----------|-----------||
Dodał: rockday , 2014-12-07 18:18
Opracowania video z komentarzy

Dodaj komentarz ...i/lub link do filmiku video

Zaloguj się do serwisu
Ostatnie komentarze
1.
rockday
2014-12-07 18:18
Hej tu ROCKDAYPL! Wrzucam moją wersję na gitarę elektryczną kolędy Bóg się rodzi. Krok po kroku pokazuję jak zagrac. Pozdrawiam Wojtek Pietraszek https://www.youtube.com/Rockdaypl
2.
Galaxa
2013-11-09 13:54
Spoko ;D
Wszelkie materiały i wypowiedzi zamieszczone na www.chords.pl są własnością ich autorów.