Zacznij systematycznie uczyć się grać na gitarze razem ze stroną Moja nauka - będziesz miał/miała do niej dostęp po zalogowaniu się w serwisie

Lulajże Jezuniu - Kolędy i Pastorałki

Opracował -a: Marcink8,
Dodał -a: Marcink8,
Redaktor: Seba,
Pochodzi z: http://www.chords.pl
Data publikacji: 2010-08-15 00:01
 
Moja nauka


Ups, problem :-/
Zaloguj się Mój śpiewnik


1)-0-0-0-3-1-0-1-----1-5-3-
2)---------------3-3-------
3)-------------------------
4)-------------------------
5)-------------------------
6)-------------------------

1)-0-0-0-3-1-0-1---3-1-1-0-
2)---------------3---------
3)-------------------------
4)-------------------------
5)-------------------------
6)-------------------------

Ref.

1)-3-3-8-7-5-5-3-1-1-5-5-3-
2)-------------------------
3)-------------------------
4)-------------------------
5)-------------------------
6)-------------------------

1)-0-0-0-3-1-0-1---3-------
2)---------------3---0-3-1-
3)-------------------------
4)-------------------------
5)-------------------------
6)-------------------------
Dodał: rockday , 2014-12-22 12:55
Opracowania video z komentarzy

Dodaj komentarz ...i/lub link do filmiku video

Zaloguj się do serwisu
Ostatnie komentarze
1.
rockday
2014-12-22 12:55
Witajcie tu Wojtek Pietraszek z Kanału ROCKDAYpl z Youtube, wrzucam moje melodyczne METALOWE wykonanie tej kolędy. Zapraszam do obejrzenia :) Pozdrawiam Wojtek Pietraszek ROCKDAY https://www.youtube.com/user/Rockdaypl
2.
rockday
2014-12-22 12:45
Witajcie tu Wojtek Pietraszek z Kanału ROCKDAYpl z Youtube, wrzucam moje melodyczne wykonanie tej kolędy. Zapraszam do obejrzenia :) Pozdrawiam Wojtek Pietraszek ROCKDAY https://www.youtube.com/user/Rockdaypl
3.
Maciek Mrozik
2013-12-13 22:19
Jest błąd w tabulaturze ;P w refrenie na pierwszej strunie jest 1)-3-3-8-7-5-5-3-1-1-5-5-3- a powinno być 1)-3-3-3-8-7-5-5-3-1-1-5-5-3- bo inaczej się nie da zaśpiewać , bo to się śpiewa tak jakby na głoski :)
4.
Olcia
2012-11-12 18:51
Ja to gram tak : C d G C d G C F G C a d G C I do tego paluszkowanie jest najlepsze,szarpię struny A G E na przemian
Wszelkie materiały i wypowiedzi zamieszczone na www.chords.pl są własnością ich autorów.