Zacznij systematycznie uczyć się grać na gitarze razem ze stroną Moja nauka - będziesz miał/miała do niej dostęp po zalogowaniu się w serwisie

Pada Śnieg (tab) - Kolędy i Pastorałki

Dodał -a: MrgaretCullen,
Redaktor: SEBEK1304,
Data publikacji: 2011-03-05 17:18
 
Moja nauka


Ups, problem :-/
Zaloguj się Mój śpiewnik


e----0------------0---------1-0---------3-3-1----0-----0------------0---------1-0----3-3-3-3-5-3-1------
h------3-1----------3-1----------3--0-0-------3----------3-1----------3-1----------3---------------3-1--
g--0--------0-0-0-------2-2--------------------------0--------0-0-0-------2-2---------------------------
d-------------------------------------------------------------------------------------------------------
a-------------------------------------------------------------------------------------------------------
e-------------------------------------------------------------------------------------------------------

e--0-0-0--0-0-0-0-3-----0-1-1-1-1-0-0-0------0---3----0-0-0--0-0-0-0-3-----0-1-1-1-1-0-0-0--3-3-1------
h-------------------1-3------------------3-3---3-----------------------1-3------------------------3-1--
g------------------------------------------------------------------------------------------------------
d------------------------------------------------------------------------------------------------------
a------------------------------------------------------------------------------------------------------
e------------------------------------------------------------------------------------------------------
Dodał: zz76zz, 2013-12-03 22:23
Opracowania video z komentarzy

Dodaj komentarz ...i/lub link do filmiku video

Zaloguj się do serwisu
Ostatnie komentarze
1.
axwel27
2011-12-29 13:49
Bardzo fajna tabulatura, momentami trzeba chwilę pomyśleć jak to zagrać, ale ogólnie spoko ;)
Wszelkie materiały i wypowiedzi zamieszczone na www.chords.pl są własnością ich autorów.