Zacznij systematycznie uczyć się grać na gitarze razem ze stroną Moja nauka - będziesz miał/miała do niej dostęp po zalogowaniu się w serwisie

Cicha Noc - Kolędy i Pastorałki

Dodał -a: krisdj,
Redaktor: Seba,
Pochodzi z: http://www.youtube.com/watch?v=fCOkjREZBX4
Data publikacji: 2011-12-04 19:14
 
Moja nauka


Ups, problem :-/
Zaloguj się Mój śpiewnik


E|------0--------------|------0--------------|-5----5----2----2----3----3---------|
B|-3---------3----0----|-3---------3----0----|-3---------3---------3---------3----|
G|-0-------------------|-0-------------------|-2---------2---------0--------------|
D|-0-------------------|-0-------------------|-0-------------------0--------------|
A|-2-------------------|-2-------------------|---------------------2--------------|
E|-3-------------------|-3-------------------|---------------------3--------------|


E|-0----0----3----2----0---------0--------------|-0----0----3----2----0---------0--------------|
B|-1------------------------3---------3----0----|-1------------------------3---------3----0----|
G|-0------------------------0-------------------|-0------------------------0-------------------|
D|-2------------------------0-------------------|-2------------------------0-------------------|
A|-3------------------------2-------------------|-3------------------------2-------------------|
E|-0------------------------3-------------------|-1------------------------3-------------------|


E|-5----5----8----5---------3---------7----|------0--------------|-2----2----3----3----|
B|-3-------------------7----3---------8----|-3---------3----0----|-3--------------0----|
G|-2------------------------0---------7----|-0-------------------|-2--------------0----|
D|-0------------------------0---------0----|-0-------------------|-0--------------0----|
A|--------------------------2--------------|-2-------------------|----------------2----|
E|--------------------------3--------------|-3-------------------|----------------3----|

Spisane w taby przeze mnie na podstawie kursu na Youtube, gdzie nie było zamieszczonych tabów.
http://www.youtube.com/watch?v=fCOkjREZBX4
Dodał: pampalini1989, 2015-12-18 21:21
Opracowania video z komentarzy

Dodaj komentarz ...i/lub link do filmiku video

Zaloguj się do serwisu
Ostatnie komentarze
1.
krisdj
2012-07-20 09:50
@waho tak tu ma być zwykły C-dur, widocznie musiałem zrobić błąd pisząc taba, bo grałem to z C-durem, a błędów może być parę bo to był mój pierwszy spisany tab
2.
waho
2011-12-13 09:36
E|--0- B|-1-- G|-0-- D|-2-- A|-3-- E|-1-- co to za palcołomny chwyt? Nie lepiej dać zwykłe C tak jak to jest wcześniej?
3.
juch11111
2011-12-10 11:39
Poprawiłem, bo trochę błędów było E|------0--------------|------0--------------|-5----5----2----2----3----3---------| B|-3---------3----0----|-3---------3----0----|-3---------3---------3---------3----| G|-0-------------------|-0-------------------|-2---------2---------0--------------| D|-0-------------------|-0-------------------|-0-------------------0--------------| A|-2-------------------|-2-------------------|---------------------2--------------| E|-3-------------------|-3-------------------|---------------------3--------------| E|-0----0----3----2----0---------0--------------|--0----0----3----2----0---------0-------------| B|-1------------------------3---------3----0--0-|-1------------------------3---------3----0--0-| G|-0------------------------0-------------------|-0------------------------0-------------------| D|-2------------------------0-------------------|-2------------------------0-------------------| A|-3------------------------2-------------------|-3------------------------2-------------------| E|-0------------------------3-------------------|-1------------------------3-------------------| E|-5----5----8----5---------3---------7----|-3----------------2--|---------------------| B|-3-------------------7----3---------8----|-3-----3----0-----3--|-1-------------------| G|-2------------------------0---------7----|-0----------------2--|----2----0-----------| D|-0------------------------0---------0----|-0-------------------|---------0-----------| A|--------------------------2--------------|-2-------------------|---------2-----------| E|--------------------------3--------------|-3-------------------|---------3-----------|
4.
krisdj
2011-12-08 19:44
Pomyłka, na końcu zamiast e|-2-2-3 H|-3---- G|-2---- D|-0---- ma być e|-2-2- H|-3-3- G|-2-2- D|-0-0-
5.
-slash-
2011-12-08 11:21
dobry jestes :P
6.
666kondzio
2011-12-07 17:42
koncowka nie wydaję mi się zbyt dokładna ale reszta jest ok
Wszelkie materiały i wypowiedzi zamieszczone na www.chords.pl są własnością ich autorów.