Zacznij systematycznie uczyć się grać na gitarze razem ze stroną Moja nauka - będziesz miał/miała do niej dostęp po zalogowaniu się w serwisie

Dzisiaj w Betlejem (tab) - Kolędy i Pastorałki

Opracował -a: Ha_eS,
Dodał -a: Ha_eS,
Redaktor: Seba,
Pochodzi z: http://www.chords.pl
Data publikacji: 2011-12-19 08:03
 
Moja nauka


Ups, problem :-/
Zaloguj się Mój śpiewnik


e|--------------------------------------------------------------------|
B|--------------------------------------------------------------------|
G|---------------------------------0--2--0----------------------------|
D|--------------0--2--2--0--2--3-----------3--2--0--------------------|
A|--3--3--2--3--------------------------------------------------------|
E|--------------------------------------------------------------------|

e|--------------------------------------------------------------------|
B|--------------------------------------------------------------------|
G|---------------------------------0--2--0----------------------------|
D|--------------0--2--2--0--2--3-----------3--2--0--------------------|
A|--3--3--2--3--------------------------------------------------------|
E|--------------------------------------------------------------------|

e|--------------------------------------------------------------------|
B|--------------------------------------------------------------------|
G|--0--0--------------------------0--0--------------------------------|
D|--------3--2--0--------------0--------3--2--0--------------0--------|
A|-----------------3--3--2--3--------------------3--3--2--3-----------|
E|--------------------------------------------------------------------|

e|--------------------------------------------------------------------|
B|--------------------------------------------------------------------|
G|--0--2--0-----------0--2--0-----------0--0--2--0--------------------|
D|-----------3--2--3-----------3--2--3--------------3--2--0-----------|
A|-----------------------------------------------------------3--------|
E|--------------------------------------------------------------------|


Można też zakończyć w taki sposób:

e|--------------------------------------------------------------------|
B|--------------------------------------------------------------------|
G|--0--2--0-----------0--2--0-----------0--0--2--0-----------5--------|
D|-----------3--2--3-----------3--2--3--------------3--2--0-----------|
A|--------------------------------------------------------------------|
E|--------------------------------------------------------------------|
Dodał: pampalini1989, 2015-12-16 21:34
Opracowania video z komentarzy

Dodaj komentarz ...i/lub link do filmiku video

Zaloguj się do serwisu
Ostatnie komentarze
1.
kris200
2016-12-23 17:04
To ja mogę śmiało polecić coś takiego http://struna-gitarowa.ct8.pl/index.php/2016/12/04/dzisiaj-w-betlejem-koleda-tabulatura/
2.
rockday
2014-12-07 18:55
Hej tu ROCKDAYPL! Wrzucam moją wersję AKORDOWĄ na gitarę elektryczną kolędy. Krok po kroku pokazuję jak zagrac. Pozdrawiam Wojtek Pietraszek https://www.youtube.com/Rockdaypl
3.
rockday
2014-12-07 18:38
Hej tu ROCKDAYPL! Wrzucam moją wersję na gitarę elektryczną kolędy. Krok po kroku pokazuję jak zagrac. Pozdrawiam Wojtek Pietraszek https://www.youtube.com/Rockdaypl
4.
epolinka
2014-01-30 13:02
:)
5.
epolinka
2014-01-30 13:01
dobrze jest :
6.
cefas
2011-12-31 09:18
3 3 2! nie gra :-( I nie udało mi się poprawić w tym układzie.
Wszelkie materiały i wypowiedzi zamieszczone na www.chords.pl są własnością ich autorów.