Zacznij systematycznie uczyć się grać na gitarze razem ze stroną Moja nauka - będziesz miał/miała do niej dostęp po zalogowaniu się w serwisie

Lulajże Jezuniu - Kolędy i Pastorałki

Dodał -a: RollingSon,
Redaktor: Seba,
Pochodzi z: http://www.chords.pl/
Data publikacji: 2012-12-22 14:27
 
Moja nauka


Ups, problem :-/
Zaloguj się Mój śpiewnik


         c                   d                 G               C
e|------------------|------------------|------------------|--------------|
H|------------------|------------------|------------------|--------------|
G|------------------|--0---------------|------------------|--2----0------|
D|--2----2----2-----|-------3--2--3----|--0----0----3-----|--------------|
A|--3---------------|--5---------------|------------------|--3-----------|
E|------------------|------------------|--3---------------|--------------|

         a                   d                 G               C
e|------------------|------------------|------------------|--------------|
H|------------------|------------------|------------------|--------------|
G|------------------|--0---------------|-------0----------|--------------|
D|--2----2----2-----|-------3--2--3----|--0-----------3---|--3-----2-----|
A|--0---------------|--5---------------|------------------|--3-----------|
E|------------------|------------------|--3---------------|--------------|

          C                  F                 G                C
e|------------------|------------------|------------------|--------------|
H|------------1--0--|------------------|------------------|--------------|
G|--0----0----------|--2----2------0---|-------0----------|--2----0------|
D|------------------|------------------|--0-----------3---|--------------|
A|--3---------------|------------------|------------------|--3-----------|
E|------------------|--1---------------|--3---------------|--------------|

          a                  d                 G                C
e|------------------|------------------|------------------|--------------||
H|------------------|------------------|------------------|--------------||
G|------------------|--0---------------|-------0----------|--------------||
D|--2----2----2-----|-------3--2--3----|---0--------------|---3----2-----||
A|--0---------------|--5---------------|--------------3---|--3-----------||
E|------------------|------------------|--3---------------|--------------||
Dodał: rockday , 2014-12-22 12:55
Opracowania video z komentarzy

Dodaj komentarz ...i/lub link do filmiku video

Zaloguj się do serwisu
Ostatnie komentarze
1.
zz76zz
2014-12-30 21:57
Zapraszam tutaj po nuty :D zajebiste opracowania mają http://adf.ly/viSYb
2.
rockday
2014-12-22 12:55
Witajcie tu Wojtek Pietraszek z Kanału ROCKDAYpl z Youtube, wrzucam moje melodyczne METALOWE wykonanie tej kolędy. Zapraszam do obejrzenia :) Pozdrawiam Wojtek Pietraszek ROCKDAY https://www.youtube.com/user/Rockdaypl
3.
rockday
2014-12-22 12:46
Witajcie tu Wojtek Pietraszek z Kanału ROCKDAYpl z Youtube, wrzucam moje melodyczne wykonanie tej kolędy. Zapraszam do obejrzenia :) Pozdrawiam Wojtek Pietraszek ROCKDAY https://www.youtube.com/user/Rockdaypl
4.
kacper222
2013-01-05 17:26
Witam chciałem się zapytac bo tu pisze 3 3 3 i jak to zagrac czy mam przstawiac palce czy mam trzyma jednego proszę o odpowiedz.
Wszelkie materiały i wypowiedzi zamieszczone na www.chords.pl są własnością ich autorów.