Zacznij systematycznie uczyć się grać na gitarze razem ze stroną Moja nauka - będziesz miał/miała do niej dostęp po zalogowaniu się w serwisie

Mędrcy świata (tab) - Kolędy i Pastorałki

Opracował -a: raszczu,
Dodał -a: raszczu,
Redaktor: Seba,
Pochodzi z: http://www.chords.pl/
Data publikacji: 2014-12-31 15:12
 
Moja nauka


Ups, problem :-/
Zaloguj się Mój śpiewnik


e|-------------------------------------------------------------------------
H|--0-1-3-3-5-5-3-3----1-0-1-5-3-------------------------------------------
G|--------------------------------5-4--------------------------------------
D|-------------------------------------------------------------------------
A|-------------------------------------------------------------------------
E|-------------------------------------------------------------------------

e|-------------------------------------------------------------------------
H|--0-1-3-3-5-8-7-5---3-0-1------------------------------------------------
G|--------------------------2-2-0------------------------------------------
D|-------------------------------------------------------------------------
A|-------------------------------------------------------------------------
E|-------------------------------------------------------------------------

e|-------------------------------------------------------------------------
H|--------3-5-7-8-12-8----------12------10---------------------------------
G|--2-4-5---------------7----7-------5------5-4----------------------------
D|-------------------------------------------------------------------------
A|-------------------------------------------------------------------------
E|-------------------------------------------------------------------------


e|-----------0-3-----------------------------------------------------------
H|-------3-3-----7-5-----3-0-1---------------------------------------------
G|--4-5-------------------------2-2-0--------------------------------------
D|-------------------------------------------------------------------------
A|-------------------------------------------------------------------------
E|-------------------------------------------------------------------------

Dodaj komentarz ...i/lub link do filmiku video

Zaloguj się do serwisu
Ostatnie komentarze
1.
TheArt
2015-12-15 18:36
Kompletnie źle, prawidłowo zaczyna się od D5 i nie używa się pustych strun.
Wszelkie materiały i wypowiedzi zamieszczone na www.chords.pl są własnością ich autorów.