Zacznij systematycznie uczyć się grać na gitarze razem ze stroną Moja nauka - będziesz miał/miała do niej dostęp po zalogowaniu się w serwisie

Dzisiaj w Betlejem (na rockowo) - Kolędy i Pastorałki

Opracował -a: rodzina123,
Redaktor: Miłosz,
Data publikacji: 2006-12-19 00:10
 
Moja nauka


Ups, problem :-/
Zaloguj się Mój śpiewnik


INTRO


E1---------------5-H8-p5-----------------------------------------|
H2-------------6---------6---------------------------------------|
G3-----------5-------------5-------------------------------------|
D4---------------------------7-----------------------------------|
A5-----------------------------8--5----3~~~~--------8~~~~--------|
E6---------------------------------------------------------------|

    F                                  C            F


ZWROTKA - akordy


F     F     F B     F C
F     F     F B     F C

REF - akordy 

C     F      C      F
F     F      F B F  g F C   F  


REF - riff

E1-------------------------------------------|
H2-------------------------------------------|
G3----------------------2---2-2-3---5-3-2----|
D4--2---2-2-3---5-3-2---3---3----------------|
A5--3---3------------------------------------|
E6-------------------------------------------| POWT.


E1--------------------------------------------------------------|
H2--6---6-6---10-10-11-10---------6---6-6---10-10-11-10---------|
G3--5---5-5---10-10-10-10---------5---5-5---10-10-10-10---------|
D4--3---3-3---10-10-10-10---------3---3-3---10-10-10-10---------|
A5--3---3-3-----------------------3---3-3-----------------------|
E6--------------------------------------------------------------|


E1----------------------------------------------|
H2--10-10--11--10-------------------------------|
G3--10-10--10--10----12~~--10~~-\---5-----10----|
D4--10-10--10--10-------------------5-----10----|
A5----------------------------------3------8----|
E6----------------------------------------------|


POWT.CAŁY REF


Gitara melody


E1--------------------------------------10----------------------|
H2------------------10---10--10-11---13----13---11---10---------|
G3--10---10--10-12---------12-------------------10---10---12~~--|
D4---------10---------------------------------------------------|
A5--------------------------------------------------------------|
E6--------------------------------------------------------------|

POWT.

REF

E1---------------------------------------------|
H2--13---13--11--10----------------------10----|
G3-------------------12----10---10----10-------|
D4---------------------------------10----------|
A5---------------------------------------------|
E6---------------------------------------------| POWT.


E1-------10--------------------10---------------|
H2--13-----13-11--10-11---13-----13-11--10-11---|
G3----------------------------------------------|
D4----------------------------------------------|
A5----------------------------------------------|
E6----------------------------------------------|


E1----------------------------------------------|
H2--13-13--13/(15~~)-13---11---10~~-------------|
G3------------------------10--------12~~--10~~--|
D4----------------------------------------------|
A5----------------------------------------------|
E6----------------------------------------------|


REF - 2 głos


E1--12---12----------------------------------------------|
H2---------15-13--------------------13-------------------|
G3---------------15---14---14----14----------------------|
D4----------------------------15-------------------------|
A5-------------------------------------------------------|
E6-------------------------------------------------------|POWT.


E1-------10---------------------10-----------------------|
H2--13------13--11-10-11---13------13--11-10-11----------|
G3-------------------------------------------------------|
D4-------------------------------------------------------|
A5-------------------------------------------------------|
E6-------------------------------------------------------|


E1--12-12--13--12----------------------------------------|
H2-----------------15--13--------------------------------|
G3-------------------------15--14------------------------|
D4-------------------------------------------------------|
A5-------------------------------------------------------|
E6-------------------------------------------------------|


POWT.CAŁY REF

Dodaj komentarz ...i/lub link do filmiku video

Zaloguj się do serwisu
Ostatnie komentarze
1.
sasax15
2008-07-21 00:44
to jest po prostu boooooskie! :)
2.
rodzina123
2007-12-29 22:02
A Ty nic na stronę nie dałeś - i to jest dopiero do kitu ! Pozdro.
3.
Adam8888
2007-12-29 21:40
Do kitu
4.
egeszege
2007-12-29 14:00
no... ujdzie:)
5.
ping_pong
2007-12-19 10:45
Dobra robota panowie. Podziw dla waszego poziomu muzycznego. RISPEKT;-))
6.
tygielska_martyna@tlen.pl
2007-12-07 11:05
Świetny pomysł aby przygotować koledy na rockowo:) Tak dalej!!! :):):)
7.
Trusia14
2007-12-06 17:11
ooj ooj ^^ superowo :) bardzo mi się podoba :) świetna robota ;)!
8.
silentgringo
2007-12-05 21:34
Moge prosic na mail sam podklad z riffow ?? Bardzo prosze :P Do innych kolend rowniez jesli mozna moj mail : silentgringo@w.pl
9.
luzipher
2007-12-05 20:53
He,he...zajefajne, już kumplowi wyslalem linka, niech ćwiczy, w sobotę przyloimy na dwie dechy...niech sąsiedzi się wczuwają w świąteczny klimat...( po wielogodzinnnym My Dying Bride w C# i tak powinni być szczęśliwi..))))
10.
Marta
2007-12-05 16:41
Świetne wykonanie :) Jeśli nie sprawiłoby to dużo kłopotu to prosze o przesłanie MP3 tych kolęd na marta1675@wp.pl Z góry dziekuje i pozdrawiam!!!
Wszelkie materiały i wypowiedzi zamieszczone na www.chords.pl są własnością ich autorów.