Zacznij systematycznie uczyć się grać na gitarze razem ze stroną Moja nauka - będziesz miał/miała do niej dostęp po zalogowaniu się w serwisie

Przybieżeli do Betlejem - Kolędy i Pastorałki

Opracował -a: Bobinho,
Redaktor: Tomek Pietrzkowski,
Pochodzi z: http://www.chords.pl
Data publikacji: 2006-12-24 12:25
 
Moja nauka


Ups, problem :-/
Zaloguj się Mój śpiewnik


zwrotka:
E||--------------|--------------|------------|------------||
B||--------------|--------------|-------1----|------------||
G||--------------|--0-----0--1--|--3---------|--3--------*|| x 2
D||--1--0--1--3--|-----3--------|------------|-----------*||
A||--------------|--------------|------------|------------||
E||--------------|--------------|------------|------------||

refren:
-------------|--------------|-------------|--------------|
--4----------|--1-----------|-------------|--------------|
-------3--3--|-----3--1--0--|--1----1--1--|--3--1--0-----|
-------------|--------------|-------------|-----------3--|
-------------|--------------|-------------|--------------|
-------------|--------------|-------------|--------------|

------------|-----------|------------|-----------||
------------|-----------|------------|-----------||
--0----1----|--3--------|--0---------|-----------||
------------|-----------|-------3----|--1--------||
------------|-----------|------------|-----------||
------------|-----------|------------|-----------||
Dodał: rockday , 2014-12-07 18:18
Opracowania video z komentarzy

Dodaj komentarz ...i/lub link do filmiku video

Zaloguj się do serwisu
Ostatnie komentarze
1.
rockday
2014-12-07 18:18
Hej tu ROCKDAYPL! Wrzucam moją wersję na gitarę elektryczną kolędy Bóg się rodzi. Krok po kroku pokazuję jak zagrac. Pozdrawiam Wojtek Pietraszek https://www.youtube.com/Rockdaypl
2.
KarQ
2011-11-18 19:50
poprawka w dolnej czesci: ------------|-----------| ------------|-----------| --0--1--3---|-0---------| ------------|----3--1---| ------------|-----------| ------------|-----------| sorki za blad :P
3.
KarQ
2011-11-18 19:49
zwrotka okej, ale refren powinien byc tak: refren: -------------|--------------|----------------------------| --4----------|--1-----------|----------------------------| -------3--3--|-----3--1--0--|--1----1--4--3--2--0--------| -------------|--------------|----------------------3-----| -------------|--------------|----------------------------| -------------|--------------|----------------------------| ------------|-----------| ------------|-----------| --0--1--3---|-----------| ------------|-0--3--1---| ------------|-----------| ------------|-----------|
4.
blindmind
2007-09-10 17:07
Wydaję mi się, że w porządku.
Wszelkie materiały i wypowiedzi zamieszczone na www.chords.pl są własnością ich autorów.