Zacznij systematycznie uczyć się grać na gitarze razem ze stroną Moja nauka - będziesz miał/miała do niej dostęp po zalogowaniu się w serwisie

Ślad (Tab) - Kombi

Opracował -a: Michax5,
Dodał -a: Michax5,
Redaktor: SEBEK1304,
Pochodzi z: http://www.chords.pl
Data publikacji: 2010-12-19 21:56, Poprawiono 2012-03-30 09:54
 
Moja nauka


Ups, problem :-/
Zaloguj się Mój śpiewnik


  Kombii - Slad

E|---------------------------------------5--------------------------
H|----------------------------------------5~~~~---------------------
G|--------2--4/5\4/5\4/5-------/7--5--------------------------------
D|---2h3----------------2h3-----------------------------------------
A|------------------------------------------------------------------
E|------------------------------------------------------------------

E|------------------------------------------------------------------
H|------------------------------------------------------------------
G|-------2--4/5\4/5\4/5-------/7--5--5-4----------------------------
D|--2h3------------------2h3--------------555-5\2/7~~---------------
A|------------------------------------------------------------------
E|------------------------------------------------------------------


Po perwszym refrenie jeszcze jest takie coś;) mniej wiecej w 1:17

E|------------------------------------------------------------------
H|------------------------------------------------------------------
G|------------------2--4/5\4/5\4/5------/7--5-----------------------
D|--2/7--2/9---2h3------------------2h3--------5~/7~~---------------
A|------------------------------------------------------------------
E|------------------------------------------------------------------


Oczywiscie 4/5  można zastąpic podciągnięciami;)

Dodaj komentarz ...i/lub link do filmiku video

Zaloguj się do serwisu
Wszelkie materiały i wypowiedzi zamieszczone na www.chords.pl są własnością ich autorów.