Zacznij systematycznie uczyć się grać na gitarze razem ze stroną Moja nauka - będziesz miał/miała do niej dostęp po zalogowaniu się w serwisie

Nic tu po mnie - Kortez

Opracował -a: adriannn17,
Dodał -a: adriannn17,
Redaktor: praz,
Pochodzi z: http://www.chords.pl/
Data publikacji: 2017-01-08 12:49
 
Moja nauka


Ups, problem :-/
Zaloguj się Mój śpiewnik


Akordy cały czas:
D fis h A

Przejście między refrenem a drugą zwrotką:
E|--------------------------------------------------------|
B|--------------------------------------------------------|
G|----------------2--------------------------2------------|
D|-------------------4---2--0-------------------4---2--0--|
A|---5--5--5--5-----------------4--4--4--4----------------|
E|--------------------------------------------------------|

E|--------------------------------------------------------|
B|--------------------------------------------------------|
G|--------------------------------------------------------|
D|---------------4----------------4------------2----------|
A|--2--2--2--2-------2--2--2--2-------0--0--0------4---0--|
E|--------------------------------------------------------|

Solo:
E|-----------------------------------------------------------------------------------------|
B|------------------11--11--11--11---------------------------------------------------------|
G|--10--10--10--10------------------6--6--6--6--7--7--6--4--6--6--6--6--4--4--4--4---------|
D|-----------------------------------------------------------------------------------------|
A|-----------------------------------------------------------------------------------------|
E|-----------------------------------------------------------------------------------------|

E|---------------------------------------------------------12--12--12--12------------------|
B|-----------------------------------------10--10--10--10------------------10--10--10--10--|
G|--2--2--2--2--2--2--2--2s11--11--11--11--------------------------------------------------|
D|-----------------------------------------------------------------------------------------|
A|-----------------------------------------------------------------------------------------|
E|-----------------------------------------------------------------------------------------|

E|-----------------------------------------------------------------------------------------|
B|-----------------------------------------------------------------------------------------|
G|--6--6--6--6--7--7--7--7--9--9--9--9--9--9--9--9-----------------------------------------|
D|-----------------------------------------------------------------------------------------|
A|-----------------------------------------------------------------------------------------|
E|-----------------------------------------------------------------------------------------|

Solo grane 2x
Dodał: adriannn17, 2017-01-08 12:50
Opracowania video z komentarzy

Dodaj komentarz ...i/lub link do filmiku video

Zaloguj się do serwisu
Wszelkie materiały i wypowiedzi zamieszczone na www.chords.pl są własnością ich autorów.