Zacznij systematycznie uczyć się grać na gitarze razem ze stroną Moja nauka - będziesz miał/miała do niej dostęp po zalogowaniu się w serwisie

Nocne Kroki [TAB] - KSU

Opracował -a: fenderix,
Dodał -a: fenderix,
Redaktor: Michasel,
Pochodzi z: http://www.chords.pl
Data publikacji: 2009-12-10 15:59
 
Moja nauka


Ups, problem :-/
Zaloguj się Mój śpiewnik
Zwrotki:
  fis            E
Obudziłem........o północy
fis          A        E
Mimo........otwarłem oczy

Refren:
 fis
Co to.......
E              A
czy to.........jawa
fis           E    A
czy to........hora wyobraźnia



Tab:
1]----------------------------------------------------
2]----------------------------------------------------
3]----------------------------------------------------
4]-4-4--4-4---2-4-4-6-7---7-7-6-6-6-6--7-4------------
5]----------------------------------------------------
6]----------------------------------------------------

1]----------------------------------------------------
2]----------------------------------------------------
3]------------------4-4-4-4-6-7-6---------------------
4]-2-4-4-6-7---7-7------------------------------------
5]----------------------------------------------------
6]----------------------------------------------------

Lub:
1]----------------------------------------------------
2]----------------------------------------------------
3]----------------------------------------------------
4]----------------------------------------------------
5]-4-4--6-7--7-7--6-6-6---7--4------------------------
6]-2-2--4-5--5-5--4-4-4---5--2------------------------

1]----------------------------------------------------
2]----------------------------------------------------
3]----------------------------------------------------
4]-----------------4-4-4--6--7--6---------------------
5]-4-4--6-7--7-7---2-2-2--4--5--4---------------------
6]-2-2--4-5--5-5--------------------------------------
To fajnie słuchać na porządnym distortion i małą dawka reverba

Dodaj komentarz ...i/lub link do filmiku video

Zaloguj się do serwisu
Ostatnie komentarze
1.
tkaczyk139
2013-05-05 13:00
kto normalny uczy się bicia... bicie się słyszy i czuje a nie uczy... na 80% uczysz się w jakiejś szkole muzycznej która zamyka Ci mózg i jesteś ogranicznoy
2.
Neferneferuaten
2011-03-27 09:58
Ehm.... A jakie jest bicie, bo nie mogę rozszyfrować...? ^ ^'
Wszelkie materiały i wypowiedzi zamieszczone na www.chords.pl są własnością ich autorów.