Zacznij systematycznie uczyć się grać na gitarze razem ze stroną Moja nauka - będziesz miał/miała do niej dostęp po zalogowaniu się w serwisie

Jabol Punk (taby) - KSU

Opracował -a: filipnight,
Dodał -a: filipnight,
Redaktor: Tomek Pietrzkowski,
Pochodzi z: http://www.chords.pl
Data publikacji: 2010-05-17 00:13
 
Moja nauka


Ups, problem :-/
Zaloguj się Mój śpiewnik


intro:
-----------------------------  x - tłumiona struna
-----------------------------
-------7-x-x--9--------------
-9-x-x-5-x-x--7--------------
-7-x-x----------9-9-9--------
----------------7-7-7--------

Riff 1 x1
----------------------------------------
----------------------------------------
----------------------------------------
-9-9------------------------------------
-7-7--10-10--12-12-12--9----------------
-------8--8--10-10-10--7----------------

Riff 2 x4

----------------------------------------
----------------------------------------
----------------------------------------
-9-9------------------------------------
-7-7--10-10--12-12-9-9-9----------------
-------8--8--10-10-7-7-7----------------

Riff 3 x4 grany z tłumieniem strun (palm muting)

-----------------------------------------------
-----------------------------------------------
-----------------------------------------------
-9-9-9-9---------------------------------------
-7-7-7-7-10-10-10-10--12-12-12-12-9-9-9-9------
----------8--8--8--8--10-10-10-10-7-7-7-7------

Riff 4

------------------------------------------------------------------------------------------------
------------------------------------------------------------------------------------------------
------------------------------------------------------------------------------------------------
-9-9-9-9-9-7-7-7-7-7-5-5-5-5-5-------------9-9-9-9-9-7-7-7-7-7-5-5-5-5-5------------------------
-7-7-7-7-7-5-5-5-5-5-3-3-3-3-3-5-5-5-5-5---7-7-7-7-7-5-5-5-5-5-3-3-3-3-3-5----------------------
-------------------------------3-3-3-3-3---------------------------------3----------------------

potem idą te same riffy wystarczy się wsłuchać w piosenkę i będziecie wiedzieć co jak idzie
Dodał: michicybo, 2012-10-28 10:29
Opracowania video z komentarzy

Dodaj komentarz ...i/lub link do filmiku video

Zaloguj się do serwisu
Wszelkie materiały i wypowiedzi zamieszczone na www.chords.pl są własnością ich autorów.