Zacznij systematycznie uczyć się grać na gitarze razem ze stroną Moja nauka - będziesz miał/miała do niej dostęp po zalogowaniu się w serwisie

Moja nienawiść, moja depresja (tab) - KSU

Opracował -a: Tomek Telesz,
Dodał -a: Tomek Telesz,
Redaktor: SEBEK1304,
Pochodzi z: http://www.chords.pl/
Data publikacji: 2013-02-22 15:23
 
Moja nauka


Ups, problem :-/
Zaloguj się Mój śpiewnik


Intro

E--------------------------------- ---------------------------------             --------
B--------------------------------- ---------------------------------             --------
G--11-11--12-12--9-9--11-11-11-11- -11-11--16-16--12-12-14-11-12-11-             ---9----
D--9--9---10-10--7-7--9--9--9--9-- -9--9---14-14--10-10-12-9--10-9-- Riff 1   3X ---7----
A--------------------------------- ---------------------------------             --------
E--------------------------------- --------------------------------- na końcu    --------

Zwrotka

E------------------------------------------------------
B------------------------------------------------------
G--9---------------------------------------------------
D--7-------------------------------5----5-4------------
A---------2--5--7-----7-5-3----3-5-3----3-2-5----2-5-7-
E---------0--3--5-----5-3-1----1-3----------3----0-3-5-    Riff 2

E----------------------------------------------------------------------------------------------
B----------------------------------------------------------------------------------------------
G----------------------------------------------------------------------------------------------
D-------------------------------------------------5--5-5-5-5--5-5-5-5--5-4---------------------
A--7-7-7-7--7-7-7-7--7-5-3--3-3-3-3--3-3-3-3--3-5-3--3-3-3-3--3-3-3-3--3-2-5--5-5-5-5--5-5-5-5-
E--5-5-5-5--5-5-5-5--5-3-1--1-1-1-1--1-1-1-1--1-3--------------------------3--3-3-3-3--3-3-3-3-   Riff 3

Refren

Gitara prowadząca
E-------------------------------------------------                 ---------------------
B-------------------------------------------------  Riff 4         ---------------------
G-------------------------------------------------                 ---------------------
D-7-10---14-14-12--10-9-------7-10---14-14-12/----                 -7-10---14-14-14-12~-
A-------------------------------------------------                 ---------------------
E------------------------------------------------- 4X Ostatni raz  ---------------------

Gitara rytmiczna
E-------------------------------------
B-------------------------------------
G-------------------------------------
D--------------------5-5-5-5----------
A--7-7-7-7--3-3-3-3--3-3-3-3--5-5-5-5-
E--5-5-5-5--1-1-1-1-----------3-3-3-3-

Zwrotka

Refren
Dodał: Tomek Telesz, 2013-02-22 17:54
Opracowania video z komentarzy

Dodaj komentarz ...i/lub link do filmiku video

Zaloguj się do serwisu
Wszelkie materiały i wypowiedzi zamieszczone na www.chords.pl są własnością ich autorów.