Zacznij systematycznie uczyć się grać na gitarze razem ze stroną Moja nauka - będziesz miał/miała do niej dostęp po zalogowaniu się w serwisie

Umarłe drzewa - KSU

Opracował -a: hofmann,
Dodał -a: hofmann,
Redaktor: Seba,
Pochodzi z: http://www.chords.pl/
Data publikacji: 2016-01-27 09:24
 
Moja nauka


Ups, problem :-/
Zaloguj się Mój śpiewnik
KSU - Umarłe Drzewa

Riff1
E|--------------|
B|--------------|
G|-----3----2---|
D|--2--3----2---|
A|--2--1----0---|
E|--0-----------|


Riff2
E|--------------------------------------------------------------
B|--------------------------------------------------------------
G|--------------------------------------------------------------
D|--------------------------------------------------------------
A|--------------------------------------------------------------
E|--0--0-0-0--0-0-0--0-0-0-0-0-0--3--3-3-3--3-3-3--3-3-3-3-3-3--
PM  x  x x x  x x x  x x x x x x  x  x x x  x x x  x x x x x x

-------------------------------------------------------|
-------------------------------------------------------|
------------------------------7--7--7-7-7--4--4--4-4-4-|
------------------------------7--7--7-7-7--4--4--4-4-4-|
------------------------------5--5--5-5-5--2--2--2-2-2-|
5--5-5-5--5-5-5--5-5-5-5-5-5---------------------------|
x  x x x  x x x  x x x x x x

Riff3
E|------------------------------------------------------------------|
B|------------------------------------------------------------------|
G|--------------------------------------------------5--5-5-5-5-5-5--|
D|--2--2-2-2-2-2-2--5--5-5-5-5-5-5--2--2-2-2-2-2-2--5--5-5-5-5-5-5--|
A|--2--2-2-2-2-2-2--5--5-5-5-5-5-5--2--2-2-2-2-2-2--3--3-3-3-3-3-3--|
E|--0--0-0-0-0-0-0--3--3-3-3-3-3-3--0--0-0-0-0-0-0------------------|


Riff4
E|--------------------------------------------------------------
B|--------------------------------------------------------------
G|--2--------------2--------------------------------------------
D|--2--------------2--------------5--------------5--------------
A|--0--0-0-0-0-0-0-0--0-0-0-0-0-0-5--------------5--------------
E|--------------------------------3--3-3-3-3-3-3-3--3-3-3-3-3-3-
PM     x x x x x x    x x x x x x    x x x x x x    x x x x x x

----------------------------------------------------|
----------------------------------------------------|
2--------------2--------------5--5-5-5-5-5-5-5---7--|
2--------------2--------------5--5-5-5-5-5-5-5---7--|
0--0-0-0-0-0-0-0--0-0-0-0-0-0-3--3-3-3-3-3-3-3---5--|
----------------------------------------------------|
   x x x x x x    x x x x x x

Riff5
E|--------------------------------------------------------------
B|--------------------------------------------------------------
G|--------------------------------------------------------------
D|--2--2-2-2--2-2-2--2-2-2-2-2-2--5--5-5-5--5-5-5--5-5-5-5-5-5--
A|--2--2-2-2--2-2-2--2-2-2-2-2-2--5--5-5-5--5-5-5--5-5-5-5-5-5--
E|--0--0-0-0--0-0-0--0-0-0-0-0-0--3--3-3-3--3-3-3--3-3-3-3-3-3--

-------------------------------------------------------|
-------------------------------------------------------|
------------------------------7--7--7-7-7--4--4--4-4-4-|
7--7-7-7--7-7-7--7-7-7-7-7-7--7--7--7-7-7--4--4--4-4-4-|
7--7-7-7--7-7-7--7-7-7-7-7-7--5--5--5-5-5--2--2--2-2-2-|
5--5-5-5--5-5-5--5-5-5-5-5-5---------------------------|
Dodał: hofmann, 2016-01-27 09:28
Opracowania video z komentarzy

Dodaj komentarz ...i/lub link do filmiku video

Zaloguj się do serwisu
Wszelkie materiały i wypowiedzi zamieszczone na www.chords.pl są własnością ich autorów.