Zacznij systematycznie uczyć się grać na gitarze razem ze stroną Moja nauka - będziesz miał/miała do niej dostęp po zalogowaniu się w serwisie

Przebudzenie ofiary systemu - KSU

Opracował -a: chronictown1,
Pochodzi z: http://www.chords.pl
Data publikacji: 2005-12-04 00:10
 
Moja nauka


Ups, problem :-/
Zaloguj się Mój śpiewnik


Wstęp:

-----------------------
-----------------------
------4-2--------------
----------4-2-55-4~~---
--2--------------------
-----------------------

melodia przed zwrotką
--------------------------------
----------7--5----5-------------
--4--7-4-------7-----7-6--7--4--
--------------------------------
--------------------------------
--------------------------------

zwrotka:
H   D A H

refren:
G D E D
G D C

PZDR dla Gosi:)

Dodaj komentarz ...i/lub link do filmiku video

Zaloguj się do serwisu
Ostatnie komentarze
1.
mlody1187
2012-01-08 13:15
cos mie sie nie modoba powtórzenie -------------------- .... -------7-7-5---7-7-5 .... -------------7------ ..... POMÓŻCIE JAK TO MA BYĆ
2.
arnold994
2008-03-10 11:18
Czy tu nie powinno być h-moll?
Wszelkie materiały i wypowiedzi zamieszczone na www.chords.pl są własnością ich autorów.