Zacznij systematycznie uczyć się grać na gitarze razem ze stroną Moja nauka - będziesz miał/miała do niej dostęp po zalogowaniu się w serwisie

Awaria obrazu - KSU

Opracował -a: pirat21wieka,
Redaktor: Miłosz,
Pochodzi z: http://www.chords.pl
Data publikacji: 2006-10-22 00:46
 
Moja nauka


Ups, problem :-/
Zaloguj się Mój śpiewnik


wstęp:
E||------------------------|----------------------|
H||------------------------|----------------------|
G||------------------------|--9-------------------|
D||--2----2--2--5--2----2--|--9--9----8--7--------|
A||--2----2--2--5--2----2--|--7--9----8--7--------|
E||--0----0--0--3--0----0--|-----7----6--5--------|


E||------------------------|--------------------|--------------------||
H||------------------------|--------------------|--------------------||
G||------------------------|--9-----------------|--------------------||
D||--2----2--2--5--2----2--|--9--------9--------|--8--------7--------||
A||--2----2--2--5--2----2--|--7--------9--------|--8--------7--------||
E||--0----0--0--3--0----0--|-----------7--------|--6--------5--------||


zwrotka:
e G e G
e G h

refren:
e C D G
e C a

Dodaj komentarz ...i/lub link do filmiku video

Zaloguj się do serwisu
Ostatnie komentarze
1.
lukaszk
2018-03-30 15:52
JA gram tak na powerach Zwrotka E H e H E H E E/H Refren E C D G E C A A
2.
Tomassen
2008-08-29 10:17
Mógłbyś rozpisać zwrotke, bo nie moge się połapać, kiedy grać to H :/
Wszelkie materiały i wypowiedzi zamieszczone na www.chords.pl są własnością ich autorów.