Zacznij systematycznie uczyć się grać na gitarze razem ze stroną Moja nauka - będziesz miał/miała do niej dostęp po zalogowaniu się w serwisie

Wiosna na Poligonie - KSU

Opracował -a: qbawroc2,
Redaktor: Miłosz,
Pochodzi z: http://www.chords.pl
Data publikacji: 2006-11-03 00:10
 
Moja nauka


Ups, problem :-/
Zaloguj się Mój śpiewnik


Intro
e|----------------------|--------------------|
h|----------------------|--------------------|
g|----------------------|--------------------|
d|----------------------|--------------------|
a|-----------5-3-2-2-2--|------------5-3-2~~~|
e|0-3-5-5-5-------------|-0-3-5-5-5----------|


Riff 1

e|----------------------|
h|----------------------|
g|-7/9-7/9--x-x-5-5-7-4-|
d|-7/9-7/9--x-x-5-5-7-4-|
a|-5/7-5/7--x-x-3-3-5-2-|
e|----------------------|


Zwrotka

D/e  Uznać muszę Cię...
e/G  Znów nie przyszedł...
G/A  Kapral goni nas...
h/D  A Ty niechcesz...

Refren
D A G A
D A G

Dodaj komentarz ...i/lub link do filmiku video

Zaloguj się do serwisu
Wszelkie materiały i wypowiedzi zamieszczone na www.chords.pl są własnością ich autorów.