Zacznij systematycznie uczyć się grać na gitarze razem ze stroną Moja nauka - będziesz miał/miała do niej dostęp po zalogowaniu się w serwisie

Czekając na królestwo j.h.w.h - Kult

Opracował -a: jacobbs,
Redaktor: Tomek Pietrzkowski,
Pochodzi z: http://www.chords.pl
Data publikacji: 2008-03-19 23:34
 
Moja nauka


Ups, problem :-/
Zaloguj się Mój śpiewnik
To po pierwsze A A5 A
To po drugie   A A5 A
To po trzecie  G G* G2 G* G
to po czwarte  A A5 A A

(najlepiej barre)

***

|-9--10-9--|-9--10-9--|-7--9--10-9-7-|-9--10-9-----
|-10-10-10-|-10-10-10-|-8--8--8--8-8-|-10-10-10----
|-9--9--9--|-9--9--9--|-7--7--7--7-7-|-9--9--9-----
|----------|----------|--------------|-------------
|----------|----------|--------------|-------------
|----------|----------|--------------|-------------
Pierwszy i drugi dźwięk każdego taktu (w trzecim takcie pierwsze trzy dźwięki) gramy dwa razy. Pomiędzy dźwiękami można tłumić.

***

Akordy:
   A     A5    G     G*    G2
E -9-----10----7-----9-----10---
H -10----10----8-----8-----8----
G -9-----9-----7-----7-----7----
D -11x---11----0x----0x----0x---
A -0x----0-----x-----x-----x----
E -x-----x-----x-----x-----x----

x- tłumienie

Mam nadzieję, że czytelnie.

Dodaj komentarz ...i/lub link do filmiku video

Zaloguj się do serwisu
Ostatnie komentarze
1.
warszawiok
2008-03-20 18:09
Refren opiera się na D G A
Wszelkie materiały i wypowiedzi zamieszczone na www.chords.pl są własnością ich autorów.