Zacznij systematycznie uczyć się grać na gitarze razem ze stroną Moja nauka - będziesz miał/miała do niej dostęp po zalogowaniu się w serwisie

Lipcowy poranek - Kult

Opracował -a: pablo_siersza,
Dodał -a: pablo_siersza,
Redaktor: Seba,
Pochodzi z: http://www.chords.pl/
Data publikacji: 2016-06-12 08:37
 
Moja nauka


Ups, problem :-/
Zaloguj się Mój śpiewnik
intro/outro: || F || C || F || C ||

D:||--3-----3-------3---2-----2-------2---------------------2-----2-------2--|
A:||----3-----3---3-------3-----3---3-----3-0---3-0---0-3-----3-----3---3----|
E:||------1-----1-----------3-----3-----------1-----1-----------3-----3------|

zwrotka: || c || f || B || c ||

refren: || Dis || G || Gis | B || c ||

solo: || c || f || B || c ||

przejście: || Dis || G || Gis | B || C || D || f || G || C || D || f || G ||

koda: || c || D || f | Dis | G || c ||

E:||---------------------------------------------------------||
H:||----------------------------------------------3-4-3------||
G:||------------------------------------------5-4---------5--||
D:||--5--------5--4---4---3-1-3--1-0-1--5-4-5----------------||
A:||----6-3--6------5----------------------------------------||
E:||---------------------------------------------------------||
Dodał: pablo_siersza, 2016-06-12 08:38
Opracowania video z komentarzy

Dodaj komentarz ...i/lub link do filmiku video

Zaloguj się do serwisu
Wszelkie materiały i wypowiedzi zamieszczone na www.chords.pl są własnością ich autorów.