Zacznij systematycznie uczyć się grać na gitarze razem ze stroną Moja nauka - będziesz miał/miała do niej dostęp po zalogowaniu się w serwisie

Chryzantemy Złociste ( całośc tab ) - Kury

Opracował -a: rybazmarsa88,
Dodał -a: rybazmarsa88,
Redaktor: Seba,
Data publikacji: 2010-09-01 16:31
 
Moja nauka


Ups, problem :-/
Zaloguj się Mój śpiewnik



Cały utw. na chwytach:

a G d a
C G d a

Zwrotki grane pojedynczymy dzwiekamy, refreny całymi akordami ( bicie podstawowe )

Zwrotki gramy wedlug schematu:


     a       G        d          a          C     i dalej tak samo:
-----0---------3----------1---------------------0-------------------------
------1-1-------3-3-----3--3-3------1------------1-1----------------------
---2---2---------0-----2-2--2-----2--2-2------0---0-----------------------
--2-2--------0--------0----------2-2--2------2-3--------------------------
-0----------2-2-----------------0-----------3-----------------------------
-----------3--------------------------------------------------------------


intro solo:
-----------------------------------------------------------------------------
------------------------------------------------------------------------------
------------------------------------------------------------------------------
--7~~-------7-(9p)-7-10-10~~-----x-10~~-9h10p9h10p9h10p9----------------------
--------------------------------------------------------10p8------------------
------------------------------------------------------------8h10--------------


--------------------------------------------------------------------------
---------------------------------------12---------------------------------
-------------------------------12-14~-----14-14----12h14------------------
------10s12---12-12-14~~--------------------------------------------------
--8s10--------------------------------------------------------------------
--------------------------------------------------------------------------

na zwrotykach warto sobie poimprowizować w tonacji amoll utw. nadaje sie do tego idealnie:)

Przejscie po refrenie I:
-12-12b-----------------------------------------------------------
-------------14-12-9-9h10----10~~---------------------------------
------------------------------------------------------------------
------------------------------------------------------------------
------------------------------------------------------------------
------------------------------------------------------------------

po II refrenie:           i po III refrenie:
----------------------------------------------------------------------------
----------------------------------------------------------------------------
----------------------------------------------------------------------------
-12h14-------------------------------12-------------------------------------
--------------------------------12-14--14---12--(12)------------------------
------------------------------14--------------------------------------------

na koniec:
--------------------------------------------------------------------
---------------------------------5----------------------------------
---------------------------------5----------------------------------
---------------------------------7---9------------------------------
-3-3-3h5-3-----2-3-----------7-------7------------------------------
-----------5-5-----3-3s5~~---5--------------------------------------
Dodał: kdaniel111, 2014-07-21 17:37
Opracowania video z komentarzy

Dodaj komentarz ...i/lub link do filmiku video

Zaloguj się do serwisu
Ostatnie komentarze
1.
kdaniel111
2014-07-21 17:37
tutaj jest tutorial dla początkujących ;) prosta łatwa i szybko się idzie z tego tutorialu nauczyć ;D
2.
meerlin
2013-12-08 19:59
Ja robie takie bicie, podobne troche do tego z filmu. 1.d d d! d-g/d-g-d d! d-g/d d d! d-g/d-g-d d! d-g 2.d d d! d-g/d-g-d d! d-g/d d d! d-g/d-g-d-g-d-g-d-g
3.
julita27
2013-09-15 11:05
daj mi jakies wskazówki
4.
julita27
2013-09-15 11:04
super fajnie grasz
5.
julita27
2013-09-15 11:02
daj mi jakies jeszcze podpowiedzi
6.
kasia60a
2013-09-14 20:48
@weronikaz999 1. dół-góra-dół dół 2. dół dół-góra góra-dół :)
7.
weronikaz999
2012-06-11 12:30
Jakie jest do tego bicie? Proszę o szybką odpowiedź :D
Wszelkie materiały i wypowiedzi zamieszczone na www.chords.pl są własnością ich autorów.