Zacznij systematycznie uczyć się grać na gitarze razem ze stroną Moja nauka - będziesz miał/miała do niej dostęp po zalogowaniu się w serwisie

Just Dance - Lady GaGA

Opracował -a: Łukasz (Chłodny),
Redaktor: Miłosz,
Pochodzi z: http://www.chords.pl
Data publikacji: 2008-12-29 20:21, Poprawiono 2009-03-29 22:07
 
Moja nauka


Ups, problem :-/
Zaloguj się Mój śpiewnik


Intro:

--0-0-0-0-4-4-4-4---------5-5-4-5-4-
------------------4-4-4-4-----------
------------------------------------
------------------------------------
------------------------------------
------------------------------------


Lady Gaga ft Colby O'Donis - Just Dance
copyright by LoDy

Standard tuning (EADGhe)

Intro:
e|-------------------------------------------------|
h|-------------------------------------------------|
G|-------------------------------------------------|
D|------------6-6-6-6---------7-7-7-7-6------------|
A|---7-7-7-7-----------6-6-6-----------------------|
E|-------------------------------------------------|

Zwrotka:

cis, E, H, fis, (E-opcjonalnie)

od słów: "What's going on......"

A, cis, A, cis

Refren:

cis, E, H, fis,

fis lepiej brzmi w drugiej pozycji:

fis: xx4675
E:   x7645x
cis: x46654
A:   577655
H:   x24442

"Solówka" na organkach leci jakoś tak:

e|----9-------------9------7-------------------------------------------|
h|---------9---------------------11-10--9------------9-----------------|
G|------------------------------------------------9--------12-11-----9-|
D|---------------------------------------------------------------------|
A|---------------------------------------------------------------------|
E|---------------------------------------------------------------------|

Dodaj komentarz ...i/lub link do filmiku video

Zaloguj się do serwisu
Wszelkie materiały i wypowiedzi zamieszczone na www.chords.pl są własnością ich autorów.