Zacznij systematycznie uczyć się grać na gitarze razem ze stroną Moja nauka - będziesz miał/miała do niej dostęp po zalogowaniu się w serwisie

Poker Face - Lady GaGA

Opracował -a: Łukasz (Chłodny),
Redaktor: Miłosz,
Pochodzi z: http://www.chords.pl
Data publikacji: 2008-12-29 20:23
 
Moja nauka


Ups, problem :-/
Zaloguj się Mój śpiewnik


Lady Gaga - Poker Face
copyright by LoDy

Standard tuning (EADGhe)

Intro / zwrotka:
e|------------------------------------------------------------------|
h|------------------------------------------------------------------|
G|------------------------------------------------------------------|
D|--------6-6-------------------6-6-------------4-4-----------------|
A|--------------------6-6--------------7----------------------------|
E|-------------4-4---------4-4-------------7----------4-4-----------|

w tle intra tak po około 8 sekundach gramy:
(nie liczyłem uderzeń dźwięku gis ani dis)
e|-----------------------------------------------------------------|
h|-----------------------------------------------------------------|
G|-------------------------6-4-6-4----8-8-8-8-8-8-8-8-8-8-9-8-9-8--|
D|--6-6-6-6-6-6-6-6-6-6-6------------------------------------------|
A|-----------------------------------------------------------------|
E|-----------------------------------------------------------------|


Jak zaczyna śpiewać:
Oh, oh, oh, oh..............to gramy wstawkę

wstawka:

e|------------------------------------------------------------------|
h|----------------4--3-----------4--3--4--3-------------------------|
G|-----------------------4----------------------4-------------------|
D|---------6-----------------6----------------------6---------------|
A|------------------------------------------------------------------|
E|------------------------------------------------------------------|

Refren:

gis-mol, E-dur, H-dur, Fis-dur,

Dodaj komentarz ...i/lub link do filmiku video

Zaloguj się do serwisu
Ostatnie komentarze
1.
Jacob666
2008-12-30 01:01
Na rozgrzewkę dla początkujących to jest niezłe :D
Wszelkie materiały i wypowiedzi zamieszczone na www.chords.pl są własnością ich autorów.