Zacznij systematycznie uczyć się grać na gitarze razem ze stroną Moja nauka - będziesz miał/miała do niej dostęp po zalogowaniu się w serwisie

Paparazzi [tab] - Lady GaGA

Opracował -a: Danver,
Dodał -a: Danver,
Redaktor: Michasel,
Data publikacji: 2009-12-10 15:33
 
Moja nauka


Ups, problem :-/
Zaloguj się Mój śpiewnik


Zwrotka :

e|--------------------------| X3
B|--------------------------|
G|--------------------------|
D|--------------------------|
A|--10--10--10--------------|
E|--------------8--8--8--8--|

e|--------------------------------------------------------|
B|--------------------------------------------------------|
G|--------------------------------------------------------|
D|--------------------------------------------------------|
A|--10--11--13--11--10--6--5--6-----10--6--5-----5--6-----|
E|-------------------------------8------------8--------8--|

e|-----------------------------|
B|-----------------------------|
G|-----------------------------|
D|-----------------------------|
A|--10--10--10--8--10--13--10--|
E|-----------------------------|


Refren :

e|---------------------------------------------------------------------------| X2
B|---------------------------------------------------------------------------|
G|--13--13--13--13--13--15--12--12--12--12--12--13--17--13--12--13--17--13---|
D|---------------------------------------------------------------------------|
A|---------------------------------------------------------------------------|
E|---------------------------------------------------------------------------|

e|------------------------------------------|
B|--16--14--13--11--8---16--14--13--11--6---|
G|------------------------------------------|
D|------------------------------------------|
A|------------------------------------------|
E|------------------------------------------|

e|---------------------------------------------------------------------------|
B|---------------------------------------------------------------------------|
G|--13--13--13--13--13--15--12--12--12--12--12--13--17--13--12--13--17--13---|
D|---------------------------------------------------------------------------|
A|---------------------------------------------------------------------------|
E|---------------------------------------------------------------------------|

Dodaj komentarz ...i/lub link do filmiku video

Zaloguj się do serwisu
Ostatnie komentarze
1.
GoldSilence
2011-05-02 20:48
No chyba że... tak jest wygodniej ;) Dzięki.
2.
Danver
2011-04-27 17:10
możesz na strunie B wciskać 13, zamiast na G 17 :)
3.
GoldSilence
2011-04-26 14:16
Fajnie się gra tylko wysokie "skoki" z progów np do 17 trochę utrudniają ale jest spoko. Dzięki b.dobrze się gra.
Wszelkie materiały i wypowiedzi zamieszczone na www.chords.pl są własnością ich autorów.