Zacznij systematycznie uczyć się grać na gitarze razem ze stroną Moja nauka - będziesz miał/miała do niej dostęp po zalogowaniu się w serwisie

Just Dance (tab) - Lady GaGA

Dodał -a: GoldSilence,
Redaktor: SEBEK1304,
Pochodzi z: http://tabs.ultimate-guitar.com/l/lady_gaga/just_dance_ta
Data publikacji: 2011-05-10 18:20
 
Moja nauka


Ups, problem :-/
Zaloguj się Mój śpiewnik


intro
e]--0--0--0--0--4--4--4--4-----------5--5--5--5--5--4--]
B]--------------------------4--4--4--------------------]
G]-----------------------------------------------------]repeat 4 times
D]-----------------------------------------------------]
A]-----------------------------------------------------]
E]-----------------------------------------------------]

Part 2
e]-----------0--2--4--0-------------------------0--2--4--0----------7--7--4--5--|
B]--2--2--4--------------2--0--2--0----2--2--4--------------2--0----------------|
G]------------------------------------------------------------------------------|
D]------------------------------------------------------------------------------|
A]------------------------------------------------------------------------------|
E]------------------------------------------------------------------------------|

e]--4--0----7--7--4--5--4--0-------------0--2--4--0--------------]
B]------------------------------2--2--4--------------2--0--2--0--]
G]---------------------------------------------------------------]
D]---------------------------------------------------------------]
A]---------------------------------------------------------------]
E]---------------------------------------------------------------]

Part 3
e]--7--5--4--0--2--4--5----4--2--2--2--4--4--2--2--4--4--2--2--2--0--7--4--]
B]-------------------------------------------------------------------------]
G]-------------------------------------------------------------------------]
D]-------------------------------------------------------------------------]
A]-------------------------------------------------------------------------]
E]-------------------------------------------------------------------------]

e]--7--5--4--2--2--0--2--0--7--2--2--2--4--4--2--2--4--4--0--4--4--]
B]-----------------------------------------------------------------]
G]-----------------------------------------------------------------]
D]-----------------------------------------------------------------]
A]-----------------------------------------------------------------]
E]-----------------------------------------------------------------]

chorus
e]--2--0-----0--0--0--0---------4--4----2--0-----0--4--4--0----7--7--5--4--]
B]--------2---------------4--4----------------2----------------------------]
G]-------------------------------------------------------------------------]
D]-------------------------------------------------------------------------]
A]-------------------------------------------------------------------------]
E]-------------------------------------------------------------------------]

e]--2--0-----0--0--0--0-----------0-----0-----0-----2--222--0-----]
B]--------2--------------4--4--4-----2-----2-----2-------------2--]
G]----------------------------------------------------------------]
D]----------------------------------------------------------------]
A]----------------------------------------------------------------]
E]----------------------------------------------------------------]
Repeat 2 and 3 and chorus

Dodaj komentarz ...i/lub link do filmiku video

Zaloguj się do serwisu
Wszelkie materiały i wypowiedzi zamieszczone na www.chords.pl są własnością ich autorów.